PrimaNota.ru - самый крупный в мире бесплатный архив песенных текстов, аккордов, табулатур и нот


Katatonia - The Act Of Darkening - таба, видео

Регистрация Запомнить меня
Войти через:  Facebook Google Twitter Vk Yandex Mail.ru

Katatonia - The Act Of Darkening - таба, видео

Печатать
Просмотров: 149
-------------------------------------------------------------------------------
                 Katatonia - The Act of Darkening
-------------------------------------------------------------------------------
Tabbed by: Alexander Gruzdev
Email: alexander.gruzdev@gmail.com

Tuning: C# G# E B F# C#

4x:
|---------0------------0h1p0-----0--------|---------3-----1-----0---0---------------|*
|-----3-----3---3------------1h3----------|-----1-----------1-----3---3---3---------|*
|---0---0-----0------0--------------------|---1---1---1-------1---------1-----------|*
|-----------------------------------------|-3-----------3---------------------------|*
|-3----------------3----------------------|-----------------------------------------|*
|-----------------------------------------|-----------------------------------------|*


|---------5----------------1--------------|-----------------------------------------|
|-----------5------------0---1p0----------|---1---1-----------------0-1-0-----------|
|-------5-----5--------2---------2--------|-----2---2-------------0-------0---------|
|-----9---------9----0--------------------|---------------------------------0-------|
|---7-------------------------------------|-3---------------------------------------|
|-5----------------1----------------------|---------------------3-------------3-----|

|---------5----------------1--------------|---------------0-------------0-----------|
|-----------5------------0---1p0----------|---1---1---1-3-----------0-1---1-0-------|
|-------5-----5--------2---------2--------|-----2---2-------------0-----------0-----|
|-----9---------9----0--------------------|-----------------------------------------|
|---7-------------------------------------|-3---------------------------------------|
|-5----------------1----------------------|---------------------3---------------3---|

2x:
|-----------------------------------------|-----------------------------------------|*
|-4-------4-------------------------------|---------------------3-------------------|*
|-5----------------5-------5--------------|-1-------1-----------4--------4----------|*
|-5----------------6----------------------|-3-------------------0-------------------|*
|-3----------------6----------------------|-3-------------------2-------------------|*
|------------------4----------------------|-1-------------------3-------------------|*

2x:
|--------------------------4--------------|-----------------------------------------|*
|----------------------------6------------|--------1------------3-------3-----------|*
|-8---10p8---------5-----------5----------|-1--------1----------4---------4---------|*
|-10-------10------6----------------------|-3----------3--------0-----------0-------|*
|-10---------------6----------------------|-3-------------------2-------------------|*
|-8----------------4----------------------|-1-------------------3-------------------|*

2x:
|-8---------------------------------------|-----------------------------------------|*
|-8----8-----------9-------9--------------|-8-------------------9-------9-----------|*
|-8------5-6-------6---------5-6----------|-10----10-8----------6---------5-6-------|*
|-6----------6-----8-------------6--------|-10---------10-------8-------------6-----|*
|-4----------------8----------------------|-10------------11----8-------------------|*
|------------------6----------------------|-8-------------------6-------------------|*

Chorus - 4x:
|-----------------------------------------|-3--------------------3------------------|*
|------------------3----------------------|-4--------------------3------------------|*
|-5----------------1----------------------|-3--------------------3------------------|*
|-5----------------0----------------------|-5--------------------3------------------|*
|-6---------------------------------------|-3--------------------5------------------|*
|-4----------------1----------------------|-3--------------------6------------------|*

2 chords after the chorus                            
|-3----------------3----------------------|
|-4----------------3----------------------|
|-3----------------3----------------------|
|------------------3----------------------|
|------------------1----------------------|
|-4---------------------------------------|

Ending
|-3---------------------------------------|-3-------------------5----------1--------|
|-6----------------8----------------------|-6-------------------6----------1--------|
|-5----------------8----------------------|-5-------------------5----------5--------|
|-3----------------6----------------------|-3-------------------7----------3--------|
|------------------4----------------------|---------------------5----------1--------|
|-----------------------------------------|-----------------------------------------|

************************************

| /   slide up
| \   slide down
| h   hammer-on
| p   pull-off
| ~   vibrato
| +   harmonic
| x   Mute note
| b   Bend
| pb  Pre-bend
| br  Bend release
| pbr Pre-bend release
| brb Bend release bend

************************************
Добавлено: 21.10.2013
Другие материалы по этой песне:
  • Аккорды и текст

Страница создана 21.10.2013
http://primanota.ru/katatonia/the-act-of-darkening-chords.htm
Привет, Гость.
Предлагаем пройти революционный курс по гитаре.
Подарок от PrimaNota.Ru, забирай!