PrimaNota.ru - самый крупный в мире бесплатный архив песенных текстов, аккордов, табулатур и нот


Katatonia - Day - текст песни, таба, видео

Регистрация Запомнить меня
Войти через:  Facebook Google Twitter Vk Yandex Mail.ru

Katatonia - Day - текст песни, таба, видео

Печатать
Просмотров: 444
Уроки эстрадного вокала в Санкт-Петербурге
Katatonia - Day Live Acoustic
Album: "Sanctitude (Union Chapel Concert Film)"

Tabbed by Alex Perez San Elias (alexirae@gmail.com)

Tuning: D tunning (D G C F A D) - 1 step down


Verse 1(x4):
    D|------------------|------------------|------------------|------------------|
    A|------------------|--------0---------|----------1-------|--------0---------|
    F|----------2-------|------------2-----|-----2--------2---|-----2------2-----|
    C|-----3--------3---|-----3----3---3---|---2---2----2---2-|---2------2---2---|
    G|---3---3----3---3-|---3------------3-|-0----------------|-0--------------0-|
    D|-1----------------|-1----------------|------------------|------------------|


Chorus 1(x2) & Chorus 2(x4):
    D|---------0h1------|-------1h0--------|------------------|------------------|
    A|-----3-------3----|-----3-----3------|---------0h1------|-------1h0--------|
    F|---2---2-------2--|---2---------2----|-----2-------2----|-----2-----2------|
    C|-0----------------|-0-------------0--|---2---2-------2--|---2---------2----|
    G|------------------|------------------|-0----------------|-0-------------0--|
    D|------------------|------------------|------------------|------------------|


Verse 2 & Verse 3:
    Same as Verse 1(x2)
    D|------------------|------------------|------------------|------------------|
    A|------------------|--------0---------|----------1-------|--------0---------|
    F|----------2-------|------------2-----|-----2--------2---|-----2------2-----|
    C|-----3--------3---|-----3----3---3---|---2---2----2---2-|---2------2---2---|
    G|---3---3----3---3-|---3------------3-|-0----------------|-0--------------0-|
    D|-1----------------|-1----------------|------------------|------------------|

    Small variation(x1)
    D|------------------|---------8--------|------------------|------------------|
    A|----------6-------|-----------8----8-|---------0h1------|-------1h0--------|
    F|-----7--------7---|------10-----10---|-----2-------2----|-----2-----2------|
    C|---7---7----7---7-|---10-------------|---2---2-------2--|---2---------2----|
    G|-5----------------|-8----------------|-0----------------|-0-------------0--|
    D|------------------|------------------|------------------|------------------|

    Same as Verse 1(x1)
    D|------------------|------------------|------------------|------------------|
    A|------------------|--------0---------|----------1-------|--------0---------|
    F|----------2-------|------------2-----|-----2--------2---|-----2------2-----|
    C|-----3--------3---|-----3----3---3---|---2---2----2---2-|---2------2---2---|
    G|---3---3----3---3-|---3------------3-|-0----------------|-0--------------0-|
    D|-1----------------|-1----------------|------------------|------------------|


Bridge(x4):
    D|-0---------|
    A|--0--------|
    F|---0-------|
    C|----2------|
    G|-----2-----|
    D|------0~---|

    
Chorus 3(x4) & Chorus 4(x8):
    Cm  Gm


CHORDS:
    Cm      Gm
D|---1---|---0---|
A|---3---|---1---|
F|---2---|---2---|
C|---0---|---2---|
G|---x---|---0---|
D|---x---|---x---|
Добавлено: 28.10.2015
Другие материалы по этой песне:

Страница создана 01.03.2012
http://primanota.ru/katatonia/day-chords.htm
Привет, Гость.
Предлагаем пройти революционный курс по гитаре.
Подарок от PrimaNota.Ru, забирай!