PrimaNota.ru - самый крупный в мире бесплатный архив песенных текстов, аккордов, табулатур и нот


Kataklysm - The Night They Returned - текст песни, таба, видео

Регистрация Запомнить меня
Войти через:  Facebook Google Twitter Vk Yandex Mail.ru

Kataklysm - The Night They Returned - текст песни, таба, видео

Печатать
Просмотров: 129
" - tremolo
 / - slide down
  - slide up
 . - palm mute
 ~ - long sound
 x - rest
 p - pull off
 h - hammer on
 tr - trill
 () - ghost note, sustained note
 * - artificial harmonics
 b - bend


Tuning from low to high: B E A D F# B

================================

Riff 1a                    x2
|-----------------------------|
|-----------------------------|
|-----------------------------|
|-----------------------------|gtr 1
|-----------------------------|
|-00000x-00000x-00000x-00000x-|
|
|-----------------------------|
|-----------------------------|
|-----------------------------|
|-----------------------------|gtr 2
|-----------------------------|
|-00000x-00000x-00000x-00000x-|


Riff 1b                        x2
|---------------------------------|
|---------------------------------|
|---------------------------------|
|---------------------------------|gtr 1
|---------------------------------|
|-000-0-0-000-0-0-000-0-0-000-0-0-|
|
|---------------------------------|
|---------------------------------|
|---------------------------------|
|---------------------------------|gtr 2
|---------------------------------|
|-000-0-0-000-0-0-000-0-0-000-0-0-|



Riff 2
|-----------------------------------------------------------|
|-----------------------------------------------------------|
|-----------------------------------------------------------|
|-------9-------9------7------7------4------4------5------5-|gtr 1
|------10------10------9------9-5555-5-5555-5-7777-7-7777-7-|
|-0000----0000----0000---0000-------------------------------|
|
|-----------------------------------------------------------|
|-----------------------------------------------------------|
|-----------------------------------------------------------|
|-------9-------9------7------7------4------4------5------5-|gtr 2
|------10------10------9------9-5555-5-5555-5-7777-7-7777-7-|
|-0000----0000----0000---0000-------------------------------|

|-----------------------------------------------------------|
|-----------------------------------------------------------|
|-----------------------------------------------------------|
|-------9-------9------7------7-----10-----10------9------9-|gtr 1
|------10------10------9------9-12"-12-12"-12-10"-10-10"-10-|
|-0000----0000----0000---0000-------------------------------|
|
|-----------------------------------------------------------|
|-----------------------------------------------------------|
|-----------------------------------------------------------|
|-------9-------9------7------7-----10-----10------9------9-|gtr 2
|------10------10------9------9-12"-12-12"-12-10"-10-10"-10-|
|-0000----0000----0000---0000-------------------------------|


Fill 1
|------------------------------------------------------|
|------------------------------------------------------|
|------------------------------------------------------|
|------------------------------------------------------|gtr 1
|--------------------------------------------------b---|
|-00000x-00000x-00000x-00000x-00000x-00000x-00000x-1~--|
|
|------------------------------------------------------|
|------------------------------------------------------|
|------------------------------------------------------|
|------------------------------------------------------|gtr 2
|--------------------------------------------------b---|
|-00000x-00000x-00000x-00000x-00000x-00000x-00000x-1~--|


Riff 3a
|-------------------------------------------------|
|-------------------------------------------------|
|-------------------------------------------------|
|-------------------------------------------------|gtr 1
|---3---3---3---65-53-3/5---3---3---3---65-5/6-3--|
|-0-1-0-1-0-1-0-43-31-1/3-0-1-0-1-0-1-0-43-3/4-1--|
|
|-------------------------------------------------|
|-------------------------------------------------|
|-------------------------------------------------|
|-------------------------------------------------|gtr 2
|---3---3---3---65-53-3/5---3---3---3---65-5/6-3--|
|-0-1-0-1-0-1-0-43-31-1/3-0-1-0-1-0-1-0-43-3/4-1--|


Riff 3b
|-------------------------------------------------|
|-------------------------------------------------|
|-------------------------------------------------|
|-------------------------------------------------|gtr 1
|---3---5---3---65-53-3/5---3---5---3---65-5/6-3--|
|-0-1-0-3-0-1-0-43-31-1/3-0-1-0-3-0-1-0-43-3/4-1--|
|
|-------------------------------------------------|
|-------------------------------------------------|
|-------------------------------------------------|
|-------------------------------------------------|gtr 2
|---3---5---3---65-53-3/5---3---5---3---65-5/6-3--|
|-0-1-0-3-0-1-0-43-31-1/3-0-1-0-3-0-1-0-43-3/4-1--|



 Riff 4a        x3
|-----------------|-------------|
|-----------------|-------------|
|-----------------|-------------|
|---------2---3---|-------------|gtr 1
|---3-----2---3---|-65-5--53-3--|
|-0-3-0-0---0---0-|-43-3--31-1--|
|
|-----------------|-------------|
|-----------------|-------------|
|-----------------|-------------|
|---------2---3---|-------------|gtr 2
|---3-----2---3---|-65-5--53-3--|
|-0-3-0-0---0---0-|-43-3--31-1--|




 Riff 4b        x3
|-----------------|-----------------|
|-----------------|-----------------|
|-----------------|-----------------|
|---2-----1-------|-----------------|gtr 1
|---2-----1---2/3-|-2h3h4p3-2h4h5p4-|
|-0---0-0---0-2/3-|-0h1h2p1-0h2h3p2-|
|
|-----------------|-----------------|
|-----------------|-----------------|
|-----------------|-----------------|
|---2-----1-------|-----------------|gtr 2
|---2-----1---2/3-|-2h3h4p3-2h4h5p4-|
|-0---0-0---0-2/3-|-0h1h2p1-0h2h3p2-|



 Riff 5
|----------------------------------------------|
|----------------------------------------------|
|----------------------------------------------|
|----------------------------------------------|gtr 1
|-2h3h4p3-2h4h5p4-2h3h4p3-2h4h5p4-3--2--6-5--3-|
|-0h1h2p1-0h2h3p2-0h1h2p1-0h2h3p2-1--0--4-3--1-|
|
|----------------------------------------------|
|----------------------------------------------|
|----------------------------------------------|
|----------------------------------------------|gtr 2
|-2h3h4p3-2h4h5p4-2h3h4p3-2h4h5p4-3--2--6-5--3-|
|-0h1h2p1-0h2h3p2-0h1h2p1-0h2h3p2-1--0--4-3--1-|

|----------------------------------------------|
|----------------------------------------------|
|----------------------------------------------|
|----------------------------------------------|gtr 1
|-2h3h4p3-2h4h5p4-2h3h4p3-2h4h5p4-3--2--5-3-6--|
|-0h1h2p1-0h2h3p2-0h1h2p1-0h2h3p2-1--0--3-1-4--|
|
|----------------------------------------------|
|----------------------------------------------|
|----------------------------------------------|
|----------------------------------------------|gtr 2
|-2h3h4p3-2h4h5p4-2h3h4p3-2h4h5p4-3--2--5-3-6--|
|-0h1h2p1-0h2h3p2-0h1h2p1-0h2h3p2-1--0--3-1-4--|



 Riff 6a
|---------------------------------------------------|
|---------------------------------------------------|
|---------------------------------------------------|
|-7"---6"---7"----------7"---6"---10"---9"----------|gtr 1
|-7"---6"---7"--8"------7"---6"---10"---9"--8"------|
|---------------8"--------------------------8"------|
|
|---------------------------------------------------|
|---------------------------------------------------|
|---------------------------------------------------|
|-7"---6"---7"----------7"---6"---10"---9"----------|gtr 2
|-7"---6"---7"--8"------7"---6"---10"---9"--8"------|
|---------------8"--------------------------8"------|



Riff 6b
|---------------------------------------------------|
|---------------------------------------------------|
|---------------------------------------------------|
|-7"---6"---7"----------7"---6"---10"---9"----------|gtr 1
|-7"---6"---7"--8"------7"---6"---10"---9"--8"------|
|---------------8"--------------------------8"------|
|
|---------------------------------------------------|
|---------------------------------------------------|
|-5"---4"---5"----------5"---4"----8"---7"----------|
|-7"---6"---7"--7"------7"---6"---10"---9"--7"------|gtr 2
|---------------8"--------------------------8"------|
|---------------------------------------------------|


End with this
|-----|
|-----|
|-----|
|-----|gtr 1
|-2-2-|
|-0-0-|
|
|-----|
|-----|
|-----|
|-----|gtr 2
|-2-2-|
|-0-0-|
Добавлено: 18.07.2012
Другие материалы по этой песне:

Страница создана 31.03.2012
http://primanota.ru/kataklysm/the-night-they-returned-chords.htm
Привет, Гость.
Предлагаем пройти революционный курс по гитаре.
Подарок от PrimaNota.Ru, забирай!