PrimaNota.ru - самый крупный в мире бесплатный архив песенных текстов, аккордов, табулатур и нот


Kataklysm - Beyond Salvation - текст песни, таба, видео

Регистрация Запомнить меня
Войти через:  Facebook Google Twitter Vk Yandex Mail.ru

Kataklysm - Beyond Salvation - текст песни, таба, видео

Печатать
Просмотров: 194
KATAKLYSM - BEYOND SALVATION SOLO

Tune to B (2.5 steps down)

RYTHM RIFF, PLAY 6 TIMES
|----------------------------------------------------------------------|
|-------0-1-0h1p0-------------1----------------0----------------3------|
|-----2-----------2---------2---2------------0---0------------0---0----|
|---2---------------------3-------3--------2-------2--------0-------0--|
|-0-------------------0-3-----------3----2-----------2----2-----------2|
|--------------------------------------0----------------3--------------|
Palm Mute low strings, second and third strings ring open

EPIC SOLO
|---------------------------------------------------------------------|
|----/9~~~--9/13-13/12--12----14/16-12~~~-11-9---(7)-7/9--9-----------|
|-----x-----x-x--x--x---x-----x--x--x-----x--x----x--x-x--x-----------|
|----/7~~~--7/10-10/9---9~~~--12/14-10~~~-9-/7~~-(5)-5/7--7~~~--------|
|---------------------------------------------------------------------|
|---------------------------------------------------------------------|

|---------------------------------------------------------------------|
|----/9~~~--9/13-13/12--12----14/16-12~~~-11-9---(7)-7/9--9-----------|
|-----x-----x-x--x--x---x-----x--x--x-----x--x----x--x-x--x-----------|
|----/7~~~--7/10-10/9---9~~~--12/14-10~~~-9-/7~~-(5)-5/7--7~~~--------|
|---------------------------------------------------------------------|
|---------------------------------------------------------------------|

quoted notes on 4th string are harmony
|---------------------------------------------------------------------|
|---------------------------------------------------------------------|
|--7-7--9-------------------------------------------------------------|
|-"9-9--10"-(1010)-9~~--(9h10p9)-7~~-7*~~~-----(77-7-9-10)------------|
|-----------------------------------PINCH-----------------------------|
|----------------------------------HARMONIC---------------------------|
  PMPM PM    PMPM                               PMPMPMPMPM


|----------------------------------------------------------------------|
|----------------------------------------------------------------------|
|------------------------------7-9--10~~~--(9h10p9)-7~~-9-10-/12~~~----|
|--10/12--10-9-7-5--/7~~~~--10-----------------------------------------|
|----------------------------------------------------------------------|
|----------------------------------------------------------------------|
          PMPMPMPM          PMPMPM                      PMPM


|---------------------------------------------12h13p12p10--12~~~~~~~~~~|
|----------------------------10h12h13-10h12h13-------------------------|
|--10-9-10~----------9h10h12-------------------------------------------|
|-------------9h10h12--------------------------------------------------|
|------------ALL--NOTES--IN--THIS--RUN--ARE--TREMOLO-PICKED------------|
|----------------------------------------------------------------------|
              PMPMPM PMPMPMPM PMPMPMPM PMPMPMPMPMPMPMPM
Добавлено: 12.03.2012
Другие материалы по этой песне:
  • Аккорды и текст

Страница создана 12.03.2012
http://primanota.ru/kataklysm/beyond-salvation-chords.htm
Привет, Гость.
Предлагаем пройти революционный курс по гитаре.
Подарок от PrimaNota.Ru, забирай!