PrimaNota.ru - самый крупный в мире бесплатный архив песенных текстов, аккордов, табулатур и нот


Kamikazee - My Tender Bear - таба, бас-таба, видео

Регистрация Запомнить меня
Войти через:  Facebook Google Twitter Vk Yandex Mail.ru

Kamikazee - My Tender Bear - таба, бас-таба, видео

Печатать
Просмотров: 231
Song:My Tender Bear
Album:Maharot
Arist:Kamikazee
Date Tabbed:March,2006
Guitar Tabber:Ryan Manongdo/16/m/Montalban Rizal
              no_falter0x@yahoo.com(Friendster&YM)
              09229015724(Sun cell)

 For your questions or suggestions,just PM or Text me!!
Please Rate...

Gtr.Legends:
/\ - slide
p  - pull-off
h  - hmmer-on
~  - let it ring
.  - palm muting
x  - dead string and scratching

Gtr.Tuning:Standard(Normal)

Intro:
e|--------------------------------------|
B|--------------------------------------|
G|----------66\44/6--77\66/7--99-77-6---| 4x
D|-77\66/7--66\44/6--77\66/7--99-77-6---|
A|-77\66/7--44\22/4--55\44/5--77-55-4---|
E|-55\44/5------------------------------|

Verse 1:Nung una kang makita...
e|------------------------------------------------------|
B|------------------------------------------------------|
G|------------------------------------------------------|
D|-777--444--777--999--999--777--777--444--777--99999---|
A|-777--444--555--777--777--555--777--444--555--77777---|
E|-555--222----------------------555--222---------------|

Chorus 1:el-naelibs sa'yo...
Play Intro 2x

Verse 2:Titign lang kita...
Play Verse 1

Chorus 2:komping kompi sayo...
Play Intro

Gtr.2 Enters:Wohoho..Tender Bear ko...
e|------------------------|
B|------------------------|
G|-99999999999999999999---|
D|-xxxxxxxxxxxxxxxxxxxx---|
A|-77777777777777777777---|
E|------------------------|

Before Bridge prt.1:
e|----------------------------------|
B|----------------------------------|
G|----------66\44/6--77\66/7--9-7---| 
D|-77\66/7--66\44/6--77\66/7--9-7---|
A|-77\66/7--44\22/4--55\44/5--7-5---|
E|-55\44/5--------------------------|
                              . .

Bridge prt.1:
e|------P---------P------P---------------------------------------------------------------|
B|------A---------A------A---------------------------------------------------------------|
G|------U---------U------U---------------------------------------------------------------|
D|-7777-S-4444-77-S-7777-S-4444-77-xxx7777xxx444-77xxx7777xxx4444-77--777xxx444-77xxxx---|
A|-7777-E-4444-55-E-7777-E-4444-55-xxx7777xxx444-55xxx7777xxx4444-55--777xxx444-55xxxx---|
E|-5555-D-2222----D-5555-D-2222----xxx5555xxx222---xxx5555xxx2222-----555xxx222---xxxx---|

Gtr.2 Enters:
e|--------------------------------------------------------------|
B|-10p9-10p9-12--10p9-10p9-12--10p9-10p9-12-10-12h14-12-10-12---|
G|--------------------------------------------------------------| 4x
D|--------------------------------------------------------------|
A|--------------------------------------------------------------|
E|--------------------------------------------------------------|

Before Bridge prt.2:
Gtr.1
e|---------------------------|
B|---------------------------|
G|---------------------------|
D|-2222--4444--66666--4444---|
A|-2222--4444--66666--2222---|
E|-0000--2222--44444---------|
   xxxx  xxxx  xxxxx  xxxx

Gtr.2:
e|-----------------------------------|
B|-----------------------------------|
G|-9999-11111111-13131313-16161616---|
D|-xxxx-xxxxxxxx-xxxxxxxx-xxxxxxxx---|
A|-7777--9-9-9-9-11111111-14141414---|
E|-----------------------------------|

Bridge prt.2(Solo of Bass):
Gtr.During Solo of Bass:
e|---------------------|
B|---------------------|
G|---------------------|
D|-77777777777777777---|
A|-77777777777777777---|
E|-55555555555555555---|
   xxxxxxxxxxxxxxxx

Bass Solo:
G|----------------------------------------------------------------------------
D|----------------------------------------------------------------------------
A|----4-4-5-5/7-5-4-5-----4-4-5-7-9-7-----4-4-5-5/7-5-4-5--1010-9-7-99-7-9----
E|-5b------------------5b--------------5b-------------------------------------

-------------------------------------------------------------------------------------------|
-------------------------------------------------------------------------------------------|
-----4-4-5-5/7-5-4-5-----4-4-5-7-9-7---1010-9-7-99-7-9-----4-5-7-5-4-5-----4-4-5-5/7-4-5---|
-5b-------------------5b---------------------------------5--------------5b-----------------|

Bridge prt.3:
e|-----------------       -------------------------------|
B|----------------- Pick  -------------------------------| Repeat 
G|----------------- Slide -------------------------------| Many Times...
D|-----------------       -------------------------------|
A|-----------------       -------------------------------|
E|-4h5-4h5-4h5-4h5-       -4h5-4h5-4h5-4h5-4h5-4h5-4h5---|

Repeat Intro:

Verse 3:At Sa twing nag-iisa...
e|-------|
B|-------|
G|-------| Bass
D|-7777-------------------------------4-5-4--0---|
A|-7777-------4-5-4--------4-5-4-----------------|
E|-5555-----5-------5-7--2-------5-7-------------|

Ang iyong malambot na...
e|---------------|
B|---------------|
G|---------------|
D|-7--4--7-9-7---|
A|-7--4--5-7-5---|
E|-5--2----------|
   .  .  . . .

Pu-kelan kaya...              Makaaaaahhhhaahnnn
e|----------------------------------------------|
B|----------------------------------------------|
G|------------------------------------9999999---|
D|-777-777--444-444--7-7-7-7--99999999xxxxxxx---|
A|-777-777--444-444--5-5-5-5--777777777777777---|
E|-555-555--222-222-----------------------------|
   ... ...  ... ...  . . . .

Repeat Chorus:

Outro:
Repeat Bridge prt.1:

End...

My Tender Bear Lyrics:

Verse 1:
Nung una kang makita
Nabigyan ng liwanag 
Ang pag-tingin ko
Sa mga katulad mo
Kahit isang yakap
Kahit isang hipo lang
Basta't pag-sapit ng dilim
Sana'y ikaw ay makakan-

Chorus 1:
Tutal naman
El-naelibs sayo

Verse 2:
Titigan lang kia
Tumitigas ang aking loob na
Mahaplos ang pisngi ng sus(.)
Sobra naba ang nararamdaman
Basta't pag-sapit ng dilim
Sana'y ikaw y makakan-

Chorus 2:
Tutal naman
Komping-kompi sa'yo
Wohohoho
Tender Bear ko

Bridge:
Haaaa
Hu-rahhh
Hu-rahhh

Verse 3:
At sa tuwing nag-iisa
At di ka makasama hanap ko 
Ang iyong malambot na pu-
Kelan kaya ako'y na-iinip na
Sana ay makaaaaaaaaaahhhhhhhhnn--

Repeat Chorus 2:
Repeat Bridge:


 Dedicate ko nga pala itong kantang to sa mga taong malilibog katulad mo:-)I would 
like to greet my family,my friends in Montalban Rizal,My Friends in our school NSDAPS 
San Mateo Rizal and My bandmates...Peace V

 Did you have any comments,questions or suggestions in my tab??just send me a message by posting
a comment,text,mail or send me a message into my friendster or YM account.

Добавлено: 17.07.2012
Другие материалы по этой песне:
  • Аккорды и текст

Страница создана 20.04.2012
http://primanota.ru/kamikazee/my-tender-bear-chords.htm
Привет, Гость.
Предлагаем пройти революционный курс по гитаре.
Подарок от PrimaNota.Ru, забирай!