PrimaNota.ru - самый крупный в мире бесплатный архив песенных текстов, аккордов, табулатур и нот


Kamikazee - Maharot (album) - таба, бас-таба, видео

Регистрация Запомнить меня
Войти через:  Facebook Google Twitter Vk Yandex Mail.ru

Kamikazee - Maharot (album) - таба, бас-таба, видео

Печатать
Просмотров: 272
Уроки эстрадного вокала в Санкт-Петербурге
Songs:
       1.)Director's Cut
       2.)Seksi Seksi
       3.)Martyr Nyebera
       4.)Narda
       5.)Chiksilog
       6.)Sobrang Init
       7.)A.I.D.S
       8.)Ambisyoso
       9.)Discoskwela
       10.)Apir Day
       11.)My Tender Bear
       12.)KKK
       13.)Narda Acoustic(MYX Live Performance)
       14.)First Day High
       15.)Doo Bidoo(Bonus Track)

Album:Maharot(2006)
Artist:Kamikazee
Guitar Tabber:Ryan Manongdo/16/m/Montalban Rizal
              no_falter0x@yahoo.com(Friendster&YM)

For your questions or suggestions,just post in friendster comment,PM or mail me.


 Damn!!Ang bilis ng panahon.Isang taon na pala ako nag-tatab dito sa ultimate-guitar.By the
way,I would like to greet my fucking troops,(Traitor Club and Schoktongs)Ram,Migs,Andrei,
Pamits,Roi,Aries,and Paul.IV-A/Padre Pio,My Friends in Montalban,Tacs,Owe,Tim,Tian,Kio,Shin,
Rong etc,Magella,Danica,Nica,Riyoko,Aida etc.My relatives,Friends ko sa YM t tsala friendster,
clan ko(alam nyo na kung sino-sino kayo)geb ult.....III-A(St.Peter),Andrei,Geoff,Louie,Edy,Dino,
Jiro,Mik,kay ano un,,,Peace Out mga pare!!oo nga pla,friends q din s o2 jam!!let's rockkkk...


1.)Song:Director's Cut
        Date Tabbed:January,2006

Intro prt.1:
e|---------5-4----------5-4------------|
B|-0-5-4-0------0-5-4-0------0-5-4-0---|
G|-------------------------------------| 2x
D|-------------------------------------|
A|-------------------------------------|
E|-------------------------------------|

Intro prt.2:
Gtr.1
e|-----------------------------|
B|-----------------------------|
G|--------------2222-----------| 4x
D|-22--9~-8-6-4-2222-0-44444---|
A|-22--7~-6-4-2-0000-0-22222---|
E|-00----------------0---------|
   ..

Gtr.2:
e|-----------------------------------------------|
B|-----------------------------------------------|
G|------------------2----2---2------4----4---4---| 2x Then
D|-22--9~-8-6-4----------------------------------|
A|-22--7~-6-4-2--00---00---0-----22---22---2-----|
E|-00--------------------------------------------|
   ..            .. . .. . . .  ..  . .. . . .


e|---------------------------------------------------------------------------------------------|
B|----------------0-9-00-9-0-1010-10-9-7-0-----------------12-10-0-10p9--0-9p7-0-7p5--5-4-00---|
G|-----13~-11-9-8-------------------------------13~-11-9-8-------------------------------------|
D|-22--xx---x-x-x---------------------------22--xx---x-x-x-------------------------------------|
A|-22--11~--9-7-6---------------------------22--11~--9-7-6-------------------------------------|
E|-00---------------------------------------00-------------------------------------------------|
   ..             . . .. . . .... .. . . .

Verse 1:Pag-mulat ng mata...
Gtr.1
e|--------------------------------------      ------|
B|--------------------------------------      ------|
G|-99999999--66-44-222222222-444444444-- 2x   ------|
D|-99999999--66-44-222222222-444444444-- Then -2~---|
A|-77777777--44-22-000000000-222222222--      -2~---|
E|--------------------------------------      -0~---|

Gtr.2
e|-------5-4--------5-4---------5-4--------------------------------------------------------------|
B|-5-4-0------5-4-0-----0-5-4-0------55-44--0-5-4-0-2-4-2---4-5-2-4-2---4-5--2-4-2---4-5-2-4-2---|
G|--------------------------------------------------------4-----------4------------4-------------|
D|-----------------------------------------------------------------------------------------------|
A|-----------------------------------------------------------------------------------------------|
E|-----------------------------------------------------------------------------------------------|

Pre-Verse 2:
Gtr.1
e|-----------------------------|
B|-----------------------------|
G|--------------2222-----------| 2x
D|-22--9~-8-6-4-2222-0-44444---|
A|-22--7~-6-4-2-0000-0-22222---|
E|-00----------------0---------|
   ..

Gtr.2:
e|-----------------------------------------------|
B|-----------------------------------------------|
G|------------------2----2---2------4----4---4---|
D|-22--9~-8-6-4----------------------------------|
A|-22--7~-6-4-2--00---00---0-----22---22---2-----|
E|-00--------------------------------------------|
   ..            .. . .. . . .  ..  . .. . . .


-----------------------------------------------------|
---------------12-10-0-10p9--0-9p7-0-7p5--5-4-00-----|
------13~-11-9-8-------------------------------------|
--22--xx---x-x-x-------------------------------------|
--22--11~--9-7-6-------------------------------------|
--00-------------------------------------------------|
  ..

Verse 2:Lahat ng gusto mo...
Play Verse 1(Both Guitar)

Binigla mo ng lubusan....
Gtr.1:Continue playing Verse

Gtr.2
e|---------5-4---------5-4-7-5-4-5----------5-4----------------------------------------------|
B|-0-5-4-0-----0-5-4-0--------------0-5-4-0-----55-44--5-4-2-4-2---5-4-2-4-2---5-4-2-4-2-----|
G|---------------------------------------------------------------4-----------4-----------4---|
D|-------------------------------------------------------------------------------------------|
A|-------------------------------------------------------------------------------------------|
E|-------------------------------------------------------------------------------------------|

Pre-Chorus:
Gtr.1
e|-----------------------------------------------|
B|-----------------------------------------------|
G|-666666666-----------------666666666-----------|
D|-666666666-77-777-777-777--666666666-7-7-7-7---|
A|-444444444-77-777-777-777--444444444-7-7-7-7---|
E|-----------55-555-555-555------------5-5-5-5---|
             .. ... ... ...            . . . .

Gtr.2
e|-----------------------------------------------|
B|-----------------------------------------------|
G|-666666666-----------------666668899-----------|
D|-666666666-77-777-777-777--xxxxxxxxx-7-7-7-7---|
A|-444444444-77-777-777-777--444446677-7-7-7-7---|
E|-----------55-555-555-555------------5-5-5-5---|
             .. ... ... ...


Lumingon sandali lang...
e|------------------------------------------|
B|------------------------------------------|
G|-666666666-----------------666666666-4~---|
D|-666666666-77-777-777-777--666666666-4~---|
A|-444444444-77-777-777-777--444444444-2~---|
E|-----------55-555-555-555-----------------|
             .. ... ... ...

Chorus:Sumigaw(Sumigaw)...
Both Guitars
e|-----------------------------------      ------|
B|----------------------------------- 2x   ------|
G|-999999999---------6666666-4444444- Then -9~---|
D|-999999999-7777777-6666666-4444444-      -9~---|
A|-777777777-7777777-4444444-2222222-      -7~---|
E|-----------5555555-----------------      ------|

Tumakbo(Tumakbo)...
Gtr.2
e|-----------------------------------------------|
B|-----------------------------------------------|
G|-999999999999999999999999999999999999-----9~---|
D|-xxxxxxxxxxxxxxxxxxxxxxxxxxxxxxxxxxxx-----9~---|
A|-777777777777777777777777777777777777-----7~---|
E|-----------------------------------------------|

Bridge:
Gtr.1
e|-------------------------------------------------------------------------------------|
B|-------------12----12----12----12----12---12----10----10----10----10-----10---10-----|
G|----------------99----99----99----99----9----9-----99----99----99----99-----9----9---|
D|---------2-2-------------------------------------------------------------------------|
A|---------2-2-------------------------------------------------------------------------|
E|-2/10p2--0-0-------------------------------------------------------------------------|

Gtr.2:
e|-----------------------------------------------------------------------------------------------|
B|-----------------------------------------------------------------------------------------------|
G|---9-8----9-8----9-8----9-8----9-8----9-8------9-8---9-8---9-8---9-8---9-8---9-8---9-8---9-8---|
D|-----------------------------------------------------------------------------------------------|
A|-0------0------------------------------------7-----7------0----0-------------------------------|
E|---------------9------9------7------7---------------------------------9-----9-----7-----7------|

Gtr.1       Gtr.2
e|--------  ----------------------|
B|-12~----  ----------------------|
G|--------  -9~-------------------|
D|--------  -x-------xxxxxxxxxx---|
A|--------  -7~------xxxxxxxxxx---|
E|--------  ---------xxxxxxxxxx---|

Lumingon sandali lang...
e|------------------------------------------|
B|------------------------------------------|
G|-666666666-----------------666666666-4~---|
D|-666666666-77-777-777-777--666666666-4~---|
A|-444444444-77-777-777-777--444444444-2~---|
E|-----------55-555-555-555-----------------|
             .. ... ... ...

Repeat Chorus:

Outro:
Gtr.2
e|-------------------------------------------------------------|
B|-5555-4444-2222-0000---5555-4444-2222-0000--5555-7777-9999---|
G|-------------------------------------------------------------|
D|-------------------------------------------------------------|
A|-------------------------------------------------------------|
E|-------------------------------------------------------------|

Last Chord:
e|----------|
B|----------|
G|------9---|
D|-999999---|
A|-777777---|
E|----------|

End...

Director's Cut Lyrics:

Verse 1:
Pagmulat ng mata agad kong naalala
Kagabe sinabi mo ayaw mo na
May mali ka bang nakita may mali bang nagawa
Bigla na lang naisip mo ayaw mo na

Verse 2:
Lahat ng gusto mo tamang sunod ako
Nagtataka bakit biglang ayaw mo na
Binigla mo ng lubusan nang ako'y iyong iwanan
Isang iglap naisip mong ayaw mo na

Pre-Chorus:
Lumingon sandali lang
Bago mo tuluyang iwan
Nais kong..

Chorus:
Sumigaw(Sumigaw)
Palabas(Palabas)
At sasabihin sa iyo ang lahat
Tumakbo(Tumakbo)
Palayo(Palayo)
At iiwanan ang alaala mo

Bridge:
Nanginginig nalulungkot
Nahihibang at tulala
Pagod na yata ang ngiti nauubos din ang tuwa
Nagiisa umiiyak
Nahihirapang huminga
Pagod na yata ang ngiti nauubos din ang tuwa
Nanginginig nalulungkot

Repeat Chorus:

Chorus 2:
At kung hindi(at kung hindi)
nababalik(nabablik)
Sana sa paggising ay wala na ang nadaramang sakit
At kung hindi(at kung hindi)
nababalik(nababalik)
Pilit sasabihin na hindi ako nagkamali

2.)Song:Seksi Seksi
   Date Tabbed:February,2006

Gtr.Legends:
. - palm muting
~ - let it ring
/ - slide
p - pull-off

Gtr.Tuning:Standard(Normal)

Intro prt.1:
e|---------             -------------------------------|
B|--------- Get the     -------------------------------|
G|--------- timing then -------------------------------|
D|-55-6-7--             -55-6-7--55-6-7--5555-6-6666---|
A|-55-6-7--             -55-6-7--55-6-7--3333-0-4444---|
E|-33-4-5--             -33-4-5--33-4-5----------------|

Intro prt.2:
e|-------------------------------      ---------------------|
B|------------------------------- 3x   ---------------------|
G|------------------------------- Then ---------------------|
D|-22-5-6-6/7b--7-5-7-6--4-5555--      -22-55--666-0-5555---|
A|-22-5-6-6/7b--5-3-5-4--2-5555--      -22-55--444-0-5555---|
E|-00-3-4-4/5b-------------3333--      -00-33------0-3333---|
                                        .. ..

Verse 1:36,24,36 yan ang sukat...
e|----------------------------------------|
B|----------------------------------------|
G|------------------------------9-9-9-9---| 2x
D|-55-6-7---7-6--7-6---55-6-7-------------|
A|-55-6-7---5-4--7-6---55-6-7-------------|
E|-33-4-5--------5-4---33-4-5-------------|
            . .  . .            . . . .

Pre-Chorus 1:Excuse me miss...
e|-----------------------------|
B|-----------------------------|
G|-----------------------------|
D|-55-6-7--55-6-7--555-6-666---|
A|-55-6-7--55-6-7--333-0-444---|
E|-33-4-5--33-4-5--------------|

Chorus:Pasensiya kana miss...
Play Intro prt.2

Verse 2:1,4,3,4,4 I love you...
Play Verse 1

Repeat Pre-Chorus 2:Parang skin ng bay...
Play Pre-Chorus 1

Repeat Chorus:

Bridge prt.1:Seksi seksi...
e|--------------------      ---------------------------|
B|--------------------      ---------------------------|
G|-------------------- 3x   ---------------------------|
D|-7--5-4-5-4--5-5/7-- Then -777-555-444-555-55-7-7~---|
A|-7--5-4-5-4--5-3/5--      -777-555-444-555-33-5-7~---|
E|-5--3-2-3-2--3------      -555-333-222-333------5~---|
   .  . . . .  .

Bridge prt.2:
Gtr.1:Play this also during gtr.2 adlib
e|-----------------------------------|
B|-----------------------------------|
G|-----------------------------------|
D|-----------------------------------|
A|-2/7---7b---7b--7b---7b-7b-7b-7b---|
E|-----0----0---0---0----------------|

Adlib:Play this really fast...
Gtr.2
e|-12b-12b-12b-12b-12b-12b--12-14p12-12-14p12-12-14p12-12-14p12-17b----|
B|---------------------------------------------------------------------|
G|---------------------------------------------------------------------|
D|---------------------------------------------------------------------|
A|---------------------------------------------------------------------|
E|---------------------------------------------------------------------|

-17-18-17-18-17-18-17-18--17-18-17---14-15-14-15-14-15-14-15--17-18-17-18-17-19b----|
------------------------------------------------------------------------------------|
------------------------------------------------------------------------------------|
------------------------------------------------------------------------------------|
------------------------------------------------------------------------------------|
------------------------------------------------------------------------------------|

Gtr.1:
e|---------------------------------      ------------------------------------------|
B|---------------------------------      ------------------------------------------|
G|--------------------------------- 3x   ------------------------------------------|
D|--------------------------------- Then -------------------------------------7~---|
A|---7b--6b--5b--4b---3b---2b--1b--      ---7b---6b---5b---4b---3b---2b---1b--7~---|
E|-0---0---0---0----0----0----0----      -0----0----0----0----0----0----0-----5~---|

--------------------------------------------------------------17-19-17-19-17-19--------|
1717-1616-1515-1414-1313-1212--1717-1616-1515-1414-1313-1212--17-19-17-19-17-19--17~---|
---------------------------------------------------------------------------------------|
---------------------------------------------------------------------------------------|
---------------------------------------------------------------------------------------|
---------------------------------------------------------------------------------------|

Bridge prt.3:
Snare Drum then

Hey miss,gusto mo bang...
e|----------|
B|----------|
G|----------|
D|-55-6-7---|
A|-55-6-7---|
E|-33-4-5---|

Parang skin ng baby...
e|-----------------------------|
B|-----------------------------|
G|-----------------------------|
D|-55-6-7--55-6-7--555-6-666---|
A|-55-6-7--55-6-7--333-0-444---|
E|-33-4-5--33-4-5--------------|

Repeat Chorus:

Outro:Repeat Bridge prt.1

Last Chord:
e|-0~---|
B|-0~---|
G|-0~---|
D|-7~---|
A|-7~---|
E|-5~---|

End...

Seksi Seksi Lyrics:

Verse 1:
36,24,36 yan ang sukat ng makinis mong yes katawan
Mistulang Coca Cola yeah(Yeah)
Pag-nakabikini mamamiya labahita ulala

Pre-Chorus 1:
Lahat kami ay nabighani mo
Excuse me miss anong pangalan mo

Chorus:
Pasensiya kana miss kung di ko maiwasan
Ang tipo mo kasi ay kay sarap titigan
Pasensiya kana miss pero di ko mapigilan
Ang seksi seksi mo,ohh yes nabubulunan

Verse 2:
1,4,3,4,4 I love you very much(I love you very much)
Nag-pupumiglas,gustong ilabas
3,5,2,5,4 you stole my heart away
Valentines day ang feeling everyday

Pre-Chorus 2:
Ang iyong mga pisngi na kay sarap himasin
Parang skin ng baby na may konting pulbo

Repeat Chorus:

Bridge prt.1:
Seksi seksi,seksi mo(Yeah alright)
Seksi,seksi,seksi,seksi ang seksi mo

Bridge prt.2:
Hey miss,gusto mo bang sumama sa akin
May alam ako malapit lang jan sa may Cubao

Repeat Pre-Chorus 2:
Repeat Chorus:
Repeat Bridge prt.1:

3.)Song:Martyr Nyebera
        Date Tabbed:January,2006

Gtr.Legends:
/\ - slide
x  - dead string
.  - plm muting
~  - let it ring
v  - vibrato

Gtr.Tuning:Normal(Standard)

Intro prt.1:
e|------------------------------------------------|
B|------------------------------------------------|
G|----------7-6------6/7-77--6/7-77-6/7-77--999---| 2x
D|-7--2-xxx-7-6-xxx--x-x-xx--x-x-xx-x-x-xx--xxx---|
A|-7--2-xxx-5-4-xxx--4/5-55--4/5-55-4/5-55--777---|
E|-5--0-xxx-----xxx-------------------------------|


Intro prt.2:
Gtr.1
e|------------------------|
B|------------------------|
G|----------7777--99999---|
D|-7777777--7777--99999---| X2
A|-7777777--5555--77777---|
E|-5555555----------------|

Gtr.2
e|-----------------------------------------------------------------------------------------------------|
B|-----------------------------------------------------------------------------------------------------|
G|-6----7/9-7-6----7/9-7-6-7-6-7-6------------------6----7/9-7-6----7/9-7-6-7-6-7-6--------------------|
D|---7----------7------------------7-9-9/11-9-7-9-----7----------7------------------7-9-9/11-9-7-9-7---|
A|-----------------------------------------------------------------------------------------------------|
E|-----------------------------------------------------------------------------------------------------|


Verse 1:Kinukumpleto mo ang...
e|-----------------------------------------------|
B|-----------------------------------------------|
G|----------7777--99999------------7777--9-9-9---|
D|-7777777--7777--99999---7777777--7777--9-9-9---|
A|-7777777--5555--77777---7777777--5555--7-7-7---|
E|-5555555----------------5555555----------------|
    ......   ...   ....    ......   ...  . . .


At pag-sapit ng gabi...
Gtr.1
e|------------------------|
B|------------------------|
G|----------7777--99999---|
D|-7777777--7777--99999---| X2
A|-7777777--5555--77777---|
E|-5555555----------------|

Gtr.2
e|-----------------------|
B|-----------------------|
G|-9999999999999999999---|
D|-xxxxxxxxxxxxxxxxxxx---|
A|-7777777777777777777---|
E|-----------------------|

Pre-Chorus:Namamagitan....
e|-------------------|
B|-------------------|
G|--------------7~---|
D|-4444--2222---7~---|
A|-4444--2222---5~---|
E|-2222--0000--------|
                  .

Chorus:Ang almusal...
e|------------------------------|
B|------------------------------|
G|--------99999--66666--77777---|
D|-77777--99999--66666--77777---|
A|-77777--77777--44444--55555---|
E|-55555------------------------|

Handa akong mag-tiis
e|------------------------------------------|
B|------------------------------------------|
G|--------99999--66666--7\6-7\6-7\6-7\6-7---|
D|-77777--99999--66666--x-x-x-x-x-x-x-x-7---|
A|-77777--77777--44444--5\4-5\4-5\4-5\4-5---|
E|-55555------------------------------------|

Pre-Verse 2:Repeat Intro 2x

Verse 2:Nahuli lang ng ilang...
Gtr.1:Play Verse 1

Gtr.2:
e|------------      ---------------|
B|------------ 3x   ------9/10-9---|
G|---9-7-6h7-- Then --9-7----------| 2x
D|-7----------      ---------------|
A|------------      ---------------|
E|------------      ---------------|

Simple lang naman...
Gtr.1
e|------------------------|
B|------------------------|
G|----------7777--99999---|
D|-7777777--7777--99999---| X2
A|-7777777--5555--77777---|
E|-5555555----------------|

Gtr.2
e|--------------------------------------|
B|--------------------------------------|
G|-141414141414--13131313--1111--9999---| 2x
D|-xxxxxxxxxxxx--xxxxxxxx---x-x--xxxx---|
A|-121212121212--11111111---9-9--7777---|
E|--------------------------------------|

Repeat Pre-Chorus

Repeat Chorus:

Bridge prt.1
Gtr.1:
e|--------------------------------------------------      ---------|
B|--------------------------------------------------      ---------|
G|-------------------------------------------------- 2x   -9-9-9---|
D|--7777-6666-------77-66----77-66-----77-66-------- Then -9-9-9---|
A|------------7777--------77--------77--------7777--      -7-7-7---|
E|--------------------------------------------------      ---------|
                                                           . . .

Gtr.2:
e|--------------------------------------------------------      ---------|
B|-10101010-9999------1010-99----1010-99----1010-99-------      ---------|
G|---------------9999---------99---------99---------9999-- 2x   -9-9-9---|
D|-------------------------------------------------------- Then -9-9-9---|
A|--------------------------------------------------------      -7-7-7---|
E|--------------------------------------------------------      ---------|
                                                                 . . .

Bridge prt.2
Gtr.1
e|-----------------------------      ------------------------------------------------|
B|-----------------------------      ------------------------------------------------|
G|----------------------------- 2x   ------------------------------------------------|
D|-7777-9999-11111111-14141414- Then --7777-6666------77-66----77-66----77-66--------|
A|-----------------------------      ------------7777-------77-------77-------7777---|
E|-----------------------------      ------------------------------------------------|

Gtr.2
e|---------------------------------|
B|-10----12----10----12----10-12---|
G|----99----99----99----99---------| 4x
D|---------------------------------|
A|---------------------------------|
E|---------------------------------|

Bridge prt.3:
Gtr.1
e|------------------------------------------|
B|------------------------------------------|
G|--------------------------------7-6-------|
D|-4444--2222--7777---4444--2222--7-6-7~~---|
A|-4444--2222--5555---4444--2222--5-4-7~~---|
E|-2222--0000---------2222--0000------5~~---|

Gtr.2
e|-----------------------------------------------------------------------------------------------------|
B|-9h1010101010-9999-10101010-141414-121212-101010-999999--101010-999-101010-121212-1010-99-10-9-10~---|
G|-----------------------------------------------------------------------------------------------------|
D|-----------------------------------------------------------------------------------------------------|
A|-----------------------------------------------------------------------------------------------------|
E|-----------------------------------------------------------------------------------------------------|


Bridge prt.4:(Clean Gtr.)
Kahit na sabihin...
Gtr.1
e|-0000------4444-2222---|
B|-2222-0000-5555-3333---|
G|-2222-1111-6666-2222---| 1x
D|-2222-2222-6666-0000---|
A|-0000-2222-4444--------|
E|------0000-------------|

Gtr.2 Enters:
e|----------------------------|
B|----------------------------|
G|-9~--7~--6-7-7/9-7-6-7-9~---|
D|----------------------------|
A|----------------------------|
E|----------------------------|

Ang dami mong...
Gtr.1:Play Chorus(PALM MUTED)

Gtr.2
e|-------------------------      ------|-------    --------    ------------------------|
B|-10-9-10--10/12-10-9-10--      ------|-10----    -12-----    --10---10---10---10-----|
G|------------------------- 3x   -9~---|----9-- 8x ----9--- 8x -----9----9----9----9---|
D|------------------------- Then ------|-------    --------    ------------------------|
A|-------------------------      ------|-------    --------    ------------------------|
E|-------------------------      ------|-------    --------    ------------------------|
                                          . .        . .          . . . .  .  . .  .

-9---9----9--------------------------------------------------------|
----------------10---10---10---10---1010101010101010101010101010---|
---9---9----9------9----9----9----9--9-9-9-9-9-9-9-9-9-9-9-9-9-9---|
-------------------------------------------------------------------|
-------------------------------------------------------------------|
-------------------------------------------------------------------|
 . . . .  . .    . .  . .  . .  . .

Bridge prt.5(Last Part):
e|-------------------------------------------|
B|-------------------------------------------|
G|-666-444-------------------------444-------|
D|-666-444-666-777-666-777-666-777-444--2~---|
A|-444-222-666-777-666-777-666-777-222--2~---|
E|---------444-555-444-555-444-555------0~---|

e|--------------------------------------|
B|--------------------------------------|
G|-666-444------------------------------|
D|-666-444-666-777-666-777-666-777-99---|
A|-444-222-666-777-666-777-666-777-99---|
E|---------444-555-444-555-444-555-77---|

Repeat Chorus

Away away away na to....
Gtr.1:
e|-----------------------------------------    ---------|
B|-----------------------------------------    ---------|
G|--------99999--66666--7\6-7\6-7\6-7\6-7-- 2x ---------|
D|-77777--99999--66666--x-x-x-x-x-x-x-x-7--    -7--7~---|
A|-77777--77777--44444--5\4-5\4-5\4-5\4-5--    -7--7~---|
E|-55555-----------------------------------    -5--5~---|
                                                .

Gtr.2
e|-------------------------------------------------------------------------------------------------|
B|-------------------------------------------------------------------------------------------------|
G|----------------------------------------------------------------------------------7\6-7\6-7\6-7--|
D|-7777-6666------77-66----77-66----77-66--------7777-6666------77-66-----77-66-----x-x-x-x-x-x-x--|
A|-----------7777-------77-------77-------7777-------------7777-------77--------77--5\4-5\4-5\4-5--|
E|-------------------------------------------------------------------------------------------------|

e|-----------|
B|-----------|
G|-6---------|
D|-x-7--7~---|
A|-4-7--7~---|
E|---5--5~---|
     .

End...


Martyr Nyebera Lyrics

Verse 1
Kinukumpleto mo ang araw ko
Sa tuwing inaaway mo
Paggising sa umga mukha mo ang nakita
Wala pang nagawa nakasimangot na
At pagsapit ng gabi
Naku lalaong lumalaki
Ang gusto lambingan ngunit may unan na
namamagitan

Chorus:
Ang almusal ay sigawan
Ang hapunan natin ay tampuhan
Ang meryenda pagdududa
Pero mahal kita
Wala ng hahanapin pang iba
Handa akong magtiis
Kahit na away away away nato!

Verse 2:
Nahuli lang ng ilang minuto din na kikibo
Natrapik lang sa kanto
Di naman gwapo
Naicip mo agad ngchicks ako
Simple lang naman ang pinagmulan
Pinahaba ang usapan
Di naman kailnagan
Mahabang away nanaman

Repeat Chorus:

Bridge:
Kahit na sabihin na naliligo ka sa sampal
Di mo masasabi na hindi kita minamahal
Andami mong babae, wala ka pang trabaho
Ngunit kahit ganon ay nanadito lang ako
Nandito lang ako..

Repeat Chorus:

Away away away nato....(3x)

4.)Song:Narda
   Date Tabbed:January,2006

Gtr.Legends:
~ - LET IT RING
x - DEAD STRING
. - PALM MUTING

Gtr.Tuning:Standard(Normal)

Intro prt.1:
e|------0-----0-----0----------------0-----0-----0-----0-------------0------0-----0----------|
B|---3----3-----3-----3---3-----3------3-----3-----3-----3------3------3------3-----3----3---|
G|-------------------------------------------------------------------------------------------|
D|-0--0-----0-----0-----0--------------------------------------------------------------------|
A|----------------------------2----2-----2-----2-----2------2--------------------------------|
E|------------------------------------------------------------3----3------3------3-----3-----|

-------0--------3~---|
----3----3------0~---|
---------------------|
---------------------|
--0--0-----0---------|
---------------------|


Intro prt.2:
Gtr.1
e|------------------------------------------|
B|------------------------------------------|
G|-77777777-444444--------------------------| 2x
D|-77777777-444444-5555555-77777777777777---|
A|-55555555-222222-5555555-77777777777777---|
E|-----------------3333333-55555555555555---|

Gtr.2
e|----------------------------------------------------------|
B|----------------------------------------------------------|
G|-777777777777777777777777777777777-999999-11111111-9999---| Then
D|-xxxxxxxxxxxxxxxxxxxxxxxxxxxxxxxxx-xxxxxx--x-x-x-x-xxxx---| Pickslide
A|-555555555555555555555555555555555-777777--9-9-9-9-7777---|
E|----------------------------------------------------------|

e|--------------------------       ----------------------------------------------|
B|--------------------------       ----------------------------------------------|
G|-999-777-999-777-7/9-7---- 3x    -7/9-7---7/9-7---7---7/9-7----7/9--7-----7~---|
D|-----------------------7-- Then  -------7-------7------------7----------7------|
A|--------------------------       ----------------------------------------------|
E|--------------------------       ----------------------------------------------|

Verse 1:Tila ibon kong lumipad
Gtr.1
e|---------------0~--      ---------------3~---|
B|---3-2---3-2-------      ---3-2---3-2---0~---|
G|-2-----2-----2----- 3x   -2-----2-----2------|
D|------------------- Then --------------------|
A|-------------------      --------------------|
E|-------------------      --------------------|

Gtr.2
e|----------------|
B|----------------|
G|-777-666--------|
D|---------7777---|
A|----------------|
E|----------------|

Mapapansin kaya...
Gtr.1
e|---0------0------0------0--------0------0-----0------0-------0-----0-------0-----0-----3~---|
B|-----3------3------3------3--------3------3-----3------3-------3-----3-------3-----3---0~---|
G|--------------------------------------------------------------------------------------------|
D|-0-----0-------0------0---------------------------------------------------------------------|
A|------------------------------2-------2-----2----------------------------0-----0-----0------|
E|---------------------------------------------------3-------3-----3--------------------------|

Gtr.2:
e|-------------------------------|
B|-------------------------------|
G|-------------------------------| Timing,,,
D|-77-777---77--7777--77--7777---|
A|-------------------------------|
E|-------------------------------|

Pre-Chorus:Awit na nananawagan...
Play Intro prt.2

Chorus:Nag-aabang sa langit...
Gtr.1
e|------------------------------------------|
B|------------------------------------------|
G|-77777777-444444--------------------------|
D|-77777777-444444-5555555-77777777777777---|
A|-55555555-222222-5555555-77777777777777---|
E|-----------------3333333-55555555555555---|

Gtr.2
e|--------------------------       ----------------------------------------------|
B|--------------------------       ----------------------------------------------|
G|-999-777-999-777-7/9-7---- 3x    -7/9-7---7/9-7---7---7/9-7----7/9--7-----7~---|
D|-----------------------7-- Then  -------7-------7------------7----------7------|
A|--------------------------       ----------------------------------------------|
E|--------------------------       ----------------------------------------------|

Verse 2:Ang suwerte nga naman ni Ding...
Play Verse 1

Mapapansin kaya...
Gtr.1
e|---------------------------------------|
B|-33-2-33333-2222-33333333-2222-33333---|
G|---------------------------------------| Timing...
D|---------------------------------------|
A|---------------------------------------|
E|---------------------------------------|

Gtr.2
e|-------------------------------|
B|-------------------------------|
G|-------------------------------| Timing,,,
D|-77-777---77--7777--77--7777---|
A|-------------------------------|
E|-------------------------------|

Repeat Pre-Chorus:

Repeat Chorus:

Bridge prt.1:
e|-------0-----0~----------0-----2~--------0-----0~---------0------3~---|
B|---3-----3----------3------3---------3-----3----------3-----3----0~---|
G|----------------------------------------------------------------------|
D|-0---0-----0----------------------------------------------------------|
A|------------------2---2------2----------------------0---0------0------|
E|-----------------------------------3---3-----3------------------------|

Tumalon kaya ako sa bangin...
Gtr.1
e|-------------------------------------------------|
B|-------------------------------------------------|
G|-------------------------------------------------|
D|-7-7-777777-444444-44-00-4--555555-77777777777---|
A|-5-0-555555-222222-22-00-2--555555-77777777777---|
E|---0------------------00----333333-55555555555---|
   .   ...... ...... .. .. .  ...... ...........

Gtr.2 Enters:Ito lang ang tanging...
e|---------------------------------|
B|---------------------------------|
G|-7777-6666------7777-6666-9999---|
D|-----------7777------------------|
A|---------------------------------|
E|---------------------------------|

Darating kaya...
Gtr.1
e|------------------------------|
B|------------------------------|
G|-77777777-444444--------------|
D|-77777777-444444-5555555-7~---|
A|-55555555-222222-5555555-7~---|
E|-----------------3333333-5~---|

Gtr.2
e|---------------------------------------------------------|
B|---------------------------------------------------------|
G|-777-666-777777-666-777777777-666-777777-6666-7777-------| Timing
D|----------------------------------------------------7~---|
A|----------------------------------------------------7~---|
E|----------------------------------------------------5~---|

Repeat Pre-Chorus:

Repeat Chorus:

Last Chord
e|-------|
B|-------|
G|-7~~---|
D|-7~~---|
A|-5~~---|
E|-------|

End...


Narda Lyrics:

Verse 1:
Tila ibon kung lumipad
Sumabay sa hangin ako'y napatingin
Sa dalagang nababalot ng hiwaga

Pre-Chorus prt.1:
Mapapansin kaya
Sa dami ng iyong ginagawa
Kung kaagaw ko lahat
May pag-asa bang makilala ka

Pre-Chorus prt.2:
Awit na nananawagan
Baka sakaling napakikinggan
Pag-ibig na pala-isipan
Sa kanta na lang idadaan

Chorus:
Nag-aabang sa langit
Sa mga ulap sumisilip
Sa likod ng mga tala
Kahit sulyap lang Darna

Verse 2:
Ang suwerte naman ni Ding
Lagi ka nyang kapililng
Kung ako sa kanya niligawan na kita

Repeat pre-Chorus prt.1 and prt.2:
Repeat Chorus:

Bridge:
Tumalon kaya ako sa bangin
Para lang iyong sagipin
Ito ang tanging paraan para mayakap ka

Repeat pre-Chorus prt.1 and prt.2
Repeat Chorus:

5.)Song:Chiksilog
   Date Tabbed:April,2006

Gtr.Legends:
/\ - slide
p  - pull-off
h  - hammer-on
x  - dead string(scratching)
~  - let it ring(vibrato)
.  - palm muting(heavy)

Gtr.Tuning:Standard(Normal)

Intro prt.1:
Gtr.1:
e|------------------------------------|
B|------------------------------------|
G|-9999999999999999--99999999999999---|
D|-xxxxxxxxxxxxxxxx--99999999999999---|
A|-7777777777777777--77777777777777---|
E|------------------------------------|

Gtr.2
e|------------------------------------|
B|------------------------------------|
G|-9999999999999999--13131313131313---|
D|-xxxxxxxxxxxxxxxx--xxxxxxxxxxxxxx---|
A|-7777777777777777--11111111111111---|
E|------------------------------------|

Intro prt.2:
Gtr.1
e|-------------------------------------------------------------------------------|
B|-------------------------------------------------------------------------------|
G|-999---------------------------------------------------------------------------|
D|-999-77-66-999---99-77-99999999---99-77-66-999---99-77-99xxx99xxx99x99x99x99---|
A|-777-77-44-999---77-77-99999999---77-77-44-999---77-77-99xxx99xxx99x99x99x99---|
E|-----55----777------55-77777777------55----777------55-77xxx77xxx77x77x77x77---|
                                                        ..   ..   .. .. .. ..

Gtr.2:
e|----------------------------------------------------------------------------------------------------|
B|-0-0-7-5-4--000-4-7-5-4--000-7-5-4-55555---000-7-5-4--000-4-7-5--000-7-5-4-55xxx55xxx55x55x55xx55---|
G|----------------------------------------------------------------------------------------------------|
D|----------------------------------------------------------------------------------------------------|
A|----------------------------------------------------------------------------------------------------|
E|----------------------------------------------------------------------------------------------------|
                                                                             ..   ..   .. .. ..  ..

Verse 1:Magdamag nag-aabang...
Gtr.1
e|------------------|
B|------------------|
G|-999---666--------| 4x
D|-xxx---666---77---|
A|-777---444---77---|
E|-------------55---|
               ..

Gtr.2 Enters:Sa dating tagpuan...
e|-------------------------------      ---------------------------|
B|-------------------------------      ---------------------------|
G|------------------------------- 3x   -99-88-66-44-22-11-22-44---|
D|-1414-1313-1111-99-77-66-77-99- Then ---------------------------|
A|-------------------------------      ---------------------------|
E|-------------------------------      ---------------------------|
   .... .... .... .. .. .. .. ..

Pre-Verse 2:
Play Intro prt.2:

Verse 2:Nung minsan nga ay nag-alay kapa...
Gtr.1:Play Verse 1

Gtr.2 Enters:Natalo na sila...         Ang makita ka...
e|-------------------------------      -----------------------|
B|-------------------------------      -----------------------|
G|------------------------------- 3x   -99-88-66-44-----------|
D|-1414-1313-1111-99-77-66-77-99- Then --------------7~--9~---|
A|-------------------------------      --------------7~--9~---|
E|-------------------------------      --------------5~--7~---|
   .... .... .... .. .. .. .. ..

Pre-Chorus:Alas dos nung linggo...
e|---------------------------------------|
B|---------------------------------------|
G|------------------------------999999---| 2x
D|---7--7----9--9-----11----11--xxxxxx---|
A|-777777--999999-111111111111--777777---|
E|-555555--777777--9-9-9-9-9-9-----------|
   .. ..   .. ..   . .   . .

Nananabik habang...
Gtr.1:
e|--------------------      -----------------|
B|--------------------      -----------------|
G|-------------------- 3x   -----------------|
D|-777-77--6666-9999-- Then -777-77-6666-9---|
A|-777-77--4444-9999--      -777-77-4444-9---|
E|-555-55-------7777--      -555-55------7---|
       ..                                 .

Gtr.2:
e|--------------------      -------------------------------------------|
B|--------------------      -------------------------------------------|
G|-------------------- 2x   --------131313-111111----------131313-11---|
D|-777-77--6666-9999-- Then -777-77-xxxxxx--x-x-x---777-77-xxxxxx--x---|
A|-777-77--4444-9999--      -777-77-111111--9-9-9---777-77-111111--9---|
E|-555-55-------7777--      -555-55-----------------555-55-------------|
      ..                         ..                     ..


Chorus:Chiksilog,ako ay nahulog...
Play Intro prt.2

Pickslide gtr.2

Both Gtr.:Chiksilog,ako ay nahulog...
e|-----------------------------------------------------------------|
B|-----------------------------------------------------------------|
G|-999-------------------------------------------------------------|
D|-999-77-66-999---99-77-99999999---99-77-66-999--99-77-99999b\4---|
A|-777-77-44-999---77-77-99999999---77-77-44-999--77-77-99999b\4---|
E|-----55----777------55-77777777------55----777-----55-77777b\2---|


Bridge(Instrumentals):When the 14 snare counts ends,both gtr will enter...

Bridge prt.1:
Gtr.1:
e|----------------------------------------------------------------------------------|
B|----------------------------------------------------------------------------------|
G|-888/999999999-66666666666------------------------999999-6666666------------------|
D|-888/999999999-66666666666-999999999-7777777777---999999-6666666-999999-7777777---|
A|-666/777777777-44444444444-999999999-7777777777---777777-4444444-999999-7777777---|
E|---------------------------777777777-5555555555------------------777777-5555555---|

Gtr.2
e|------------555-7777777-555-444-||-777777-555-444--777777-555-444-------------------|
B|--------------------------------||--------------------------------5555-4444-0000----|
G|--------------------------------||--------------------------------------------------| 2x
D|--------------------------------||--------------------------------------------------|
A|--------------------------------||--------------------------------------------------|
E|-pickslide----------------------||--------------------------------------------------|


Bridge prt.2:
Gtr.1:
e|-------------------P-------------------|
B|-------------------A-------------------|
G|-------------------U-------------------| 2x
D|-777-77--6666-9999-S-77777-6666-9999---|
A|-777-77--4444-9999-E-77777-4444-9999---|
E|-555-55-------7777-D-55555------7777---|
       ..

Gtr.2
e|---------------------------------------P--------------------------------------------------------------------------P---|
B|-12-10-9-0-10-9-0-12-10-0-10-9-0-7-9-7-A-10-9-0-12-10-0-10-9-0-7-9-0-10-9-0-0-12-10-0-9-10-0-12-10-0-9h10-12-10-0-A---|
G|---------------------------------------U--------------------------------------------------------------------------U---|
D|---------------------------------------S--------------------------------------------------------------------------S---|
A|---------------------------------------E--------------------------------------------------------------------------E---|
E|---------------------------------------D--------------------------------------------------------------------------D---|

-----------------------------------------|
-0-10-9-0-12-10-0-10p9-0-9-10-0-10-9-0---|
-----------------------------------------|
-----------------------------------------|
-----------------------------------------|
-----------------------------------------|


Bridge prt.3:
Gtr.1
e|-------------------------------------------------------------------|
B|-------------------------------------------------------------------|
G|-------------6~-9999---------------6~-9999--------------6~--9999---|
D|---7~---9~-666~-xxxx-----7~---9~-666~-9999----7~---9~-666~--xxxx---|
A|-777~-999~-444~-7777---777~-999~-444~-7777--777~-999~-444~--7777---|
E|-555~-777~-------------555~-777~------------555~-777~--------------|
   ..   ..   ..          ..   ..   ..         ..   ..   ..

Gtr.2:
e|----------------------------------------------------------------------|
B|----------------------------------------------------------------------|
G|-------------6--9999---------------6~-13131313--------------6~-9999---|
D|---7~---9~-666~-xxxx-----7~---9~-666~-xxxxxxxx----7~---9~-666~-xxxx---|
A|-777~-999~-444~-7777---777~-999~-444~-11111111--777~-999~-444~-7777---|
E|-555~-777~-------------555~-777~----------------555~-777~-------------|
   ..   ..

Bridge prt.4(End of Instrumentals):
Gtr.1
e|---------------------------------|
B|---------------------------------|
G|---------------------------------|
D|-77------99------77------99------|
A|-77------99------77------99------|
E|-55------77------55------77------|
   ..      ..      ..      ..

Gtr.2:
e|---------------------------------|
B|---------------------------------|
G|---------------------------------|
D|----6h7p----6h7p----6h7p----6h7p-|
A|---------------------------------|
E|---------------------------------|

Verse 3:Walang saysay...
Gtr.1:Play Verse 1

Kaya pala,ang husay mo sa espada...
e|-------------------------------------------------------------------------------------|
B|-------------------------------------------------------------------------------------|
G|-9999999999999/111111111111/1313/161616---99999999999999/1111111111111111------------|
D|-xxxxxxxxxxxxx--x-x-x-x-x-x--x-x--x-x-x---xxxxxxxxxxxxxx--x-x-x-x-x-x-x-x--7~---9~---|
A|-7777777777777/-9-9-9-9-9-9/1111/141414---77777777777777/-9-9-9-9-9-9-9-9--7~---9~---|
E|---------------------------------------------------------------------------5~---7~---|

Repeat Pre-Chorus:
Repeat Chorus:

Last Chord:
e|------|
B|------|
G|------|
D|-9~---|
A|-9~---|
E|-7~---|

End...


Chiksilog Lyrics:

Verse 1:
Magdamag nag-aabang maglalaro kaya
Ang dalagang nagtatago sa alyas na maldita
Sa dating tagpuan sa bayan ng prontera
Katabi ng tindahan ng magic at sandata

Verse 2:
Nung minsan nga ay nag-alay ka pa ng buhay mo
Ng kinalaban natin ang mga bagong dayo
Natalo nga sila at nagyaya ka mag-saya
Tanging hinihintay ang makita ka

Pre-Chorus:
Alas dos nung linggo(sa may gotesco)
Nagpolo pa ako(at nagpabango)
Nananabik habang(hinahanap ka)
Tumigil ang mundo nang makita ka

Chorus:2x
Chiksilog ako ay nahulog
Nilinlang niloko alam ko na'ng sikreto mo

Verse 3:
Walang saysay pag-levelup pantasya ay nasira na
Ang inipong lakas naglaho parang bula
Kaya pla ang husay mo sa espada
Si maldita ay lalake pala

Repeat Pre-Chorus:
Repeat Chorus:


6.)Song:Sobrang Init
        Date Tabbed:March,2006

Intro
guitar1
e|--------------      ------------------|
B|--------------      ------------------|
G|-------------- 8x   ------------------|
D|-4\3--222222-- Then -4\3-0-6\4--0-6---|
A|-2\1--222222--      -2\1-0-4\2--0-4---|
D|------222222--      ------------------|
        ......

Verse 1:Nagising sa pawis ko...
Gtr.1:Play Intro

Gtr.2
e|-------------|
B|-------------|
G|-10\999999---|   Timing...
D|--x-xxxxxx---|
A|--8\777777---|
D|-------------|

Chorus:Shit,sobrang init...
e|------------------------|
B|------------------------|
G|------------------------| 8x
D|-2-5-4--2--7--5--4--8---|
A|-2-5-4--2--7--5--4--8---|
D|-2-5-4--2--7--5--4--8---|

Pre-Verse 2:
e|-------------------------------------------------------------------------------|
B|-------------------------------------------------------------------------------|
G|-------------------------------------------------------------------------------|
D|--2222222222---4\3-222222--4\3-222222--4\3-222222--4\3-222222--4\3-0-6\4-0-6---|
A|--2222222222---2\1-222222--2\1-222222--2\1-222222--2\1-222222--2\1-0-4\2-0-4---|
D|--2222222222-------222222------222222------222222------222222------------------|
    ..........       ......      ......      ......      ......


Verse 2:Keln kaya mag-kakapera...
Play Verse 1

Repeat Chorus:

Bridge prt.1:Wala akong pampalit...
Bass
G|-------------------------|
D|-------------------------|
A|-------------2-1---2-1---|
D|-2---2--2--2-----2-------|

Gtr.Enters:
e|---------------|
B|---------------|
G|-999--999999---| Timing...
D|-xxx--xxxxxx---|
A|-777--777777---|
D|---------------|


Bridge prt.2(Instrumentals)
e|------------------|
B|------------------|
G|------------------| Repeat Many times
D|------------------|
A|------------------|
D|-6b--7b--6b--7b---|


e|------------------|
B|------------------|
G|------------------| Repeat Many Times
D|------3-------3---|
A|-222--1--222--1---|
D|-222-----222------|
   ...  .  ...  .

Last Part:
Gtr.1
e|--------------------|
B|--------------------|
G|--------------------|
D|-2222222222222222---|
A|-2222222222222222---|
D|-2222222222222222---|

Gtr.2
e|--------------      -------------------------------------------------------------------|
B|--------------      -------------------------------------------------------------------|
G|-------------- 4x   -------------------------------------------------------------------|
D|-------------- Then -------------------------------------------------------------------|
A|--------------      -------------------------------------------------------------------|
D|-2222--44-55--      -44-55-77-88--44-55-77-88--44-55-77-88-99-1010-1111-1212-1313-14---|
   bbbb  bb bb         bb bb bb bb  bb bb bb bb  bb bb bb bb bb bbbb bbbb bbbb bbbb bb


Repeat Chorus:Palm muted after 6x played


guitar1
e|----------------|
B|----------------|
G|-------444444---|
D|-222222222222---|
A|-222222222222---|
D|-222222222222---|
   ............

Tumutulo ang pawis ko...
e|----------------------------------------------------|
B|----------------------------------------------------|
G|----------------------------------------------------|
D|-2--22---2-2---22---2-2-2-2-2-2-2-2---22222222-22---|
A|-2--22---2-2---22---2-2-2-2-2-2-2-2---22222222-22---|
D|-2--22---2-2---22---2-2-2-2-2-2-2-2---22222222-22---|
   .  ..   . .   ..   . . . . . . . .   ........ ..

Shittttt  ang init...
e|-----------------|
B|-----------------|
G|-----------------|
D|-4\3--22222222---|
A|-2\1--22222222---|
D|------22222222---|

Outro:
e|-----------      ------------------|
B|-----------      ------------------|
G|----------- 3x   ------------------|
D|-4\3-22-2-- Then -4\3--22-2-22-2---|
A|-2\1-22-2--      -2\1--22-2-22-2---|
D|-----22-2--      ------22-2-22-2---|
       ..                ..   ..


End...


Sobrang Init Lyrics:

Verse 1:
Nagising sa pawis ko,
Di kinaya ng bentilador, basa ang unan, pati ang kumot,
Parang umihi sa kama kohhh!!
Ibang klase pag tanghali,
Di ka lalabas sa kalye..
Ulo'y iinit, mukha'y papangit
Masusunog kasusungit!!

Chorus:
Syet sobrang init! abot singit! (4x)

Verse 2:
Kelan kaya magkakapera,
Nang mapa-aircon na ang sala
Kahit maligo, ka parati
Malagkit pa rin ang kili-kili

Repeat Chorus:

Bridge:
Wala kong pampalit, ay naloko na…(15x)

Repeat Chorus

Outro:
Tumutulo pawis ko, (12x)

Syettt!! ang init!!(3x)
Syettt!! abot singit!!

7.)Song:A.I.D.S
        Date Tabbed:January,2006

Gtr.Legends:
/\ - let it ring
.  - palm muting
~  - let it ring
x  - dead string

Gtr.Tuning:Standard(Normal)

Intro:
Gtr.1
e|-------------------|
B|-------------------|
G|-6-6-6-6-6-6-6-----|
D|-6-6-6-6-6-6-6-7---|
A|-4-4-4-4-4-4-4-7---|
E|---------------5---|
   . . . . . . .

Gtr.1
e|----------------------------------------------|
B|----------------------------------------------|
G|-6-6-6-6-6-6-6--99999-------------------------| 8x
D|-6-6-6-6-6-6-6--99999--7-7-7-7-7-7-7--99999---|
A|-4-4-4-4-4-4-4--77777--7-7-7-7-7-7-7--99999---|
E|-----------------------5-5-5-5-5-5-5--77777---|
   . . . . . . .         . . . . . . .

Gtr.2 Enters:
e|----------------------------|
B|----------------------------|
G|-999-888-999-888--8/9-8/9---| 4x
D|----------------------------|
A|----------------------------|
E|----------------------------|


Verse 1:Ika nga nila...
Gtr.1:Play Intro

Gtr.2
e|----------------|
B|----------------|
G|----------------|
D|-1111-99-1111---|
A|----------------|
E|----------------|
   .... .. ....

Pre-Verse 2:Pinag-tatampukan...
Gtr.1
e|--------------------------------------------|
B|--------------------------------------------|
G|-999999----------66666----------6-6-6-6-----|
D|-999999--777777--66666--777777--6-6-6-6-7---|
A|-777777--777777--44444--777777--4-4-4-4-7---|
E|---------555555---------555555----------5---|
                                  . . . . .

Gtr.2
e|----------------------------      ----------------------------------------|
B|----------------------------      ----------------------------------------|
G|-99/1111/1313/1414\1313-11-- 2x   -99/11111/1313/1414\1313-11--16161616---|
D|-xx--x-x-xxxx-xxxx-xxxx--x-- Then -xx--x-x-xxxx-xxx--xxxx---x--xxxxxxxx---|
A|-77/-9-9/1111/1212\1111--9--      -77/-9-9-/1111/1212\1111--9--14141414---|
E|----------------------------      ----------------------------------------|

Verse 2:Minsan muntik...
Play Verse 1

Pre-Chorus:Parang di nawala...
Play Pre-Verse 2


Chorus:Dalangin sana ngayon..
Gtr.1
e|--------------------------------      ------|
B|--------------------------------      ------|
G|-999999----------66666---------- 2x   -9~---|
D|-999999--777777--66666--777777-- Then -9~---|
A|-777777--777777--44444--777777--      -7~---|
E|---------555555---------555555--      ------|

Gtr.2 Enters:Pag nag-dilim ....
e|-----------------------------------|
B|-----------------------------------|
G|-999999999999999999999999999--9~---|
D|-xxxxxxxxxxxxxxxxxxxxxxxxxxx--9~---|
A|-777777777777777777777777777--7~---|
E|-----------------------------------|

Bridge prt.1:Di mahalga,kung papatok...
Pick slide
Gtr.1
e|------------|
B|------------|
G|-99-88-99---| Timing
D|------------|
A|------------|
E|------------|
   .. .. ..

Gtr.2
e|----------------|
B|----------------|
G|----------------| Timing
D|-1111-99-1111---|
A|----------------|
E|----------------|
   .... .. ....


Di mahalaga,bumenta man sa masa...
Gtr.1
e|------------|
B|------------|
G|-99-88-99---| Timing
D|------------|
A|------------|
E|------------|

Gtr.2
e|----------------|
B|----------------|
G|----------------| Timing
D|-1111-99-1111---|
A|----------------|
E|----------------|

Istorya nating dalawa...
e|------------------------------------------------------------------|
B|------------------------------------------------------------------|
G|-6-6-6-6-6-6-6--99999----------------------6-6-6-6-6--99999-------|
D|-6-6-6-6-6-6-6--99999--7-7-7-7-7--999999---6-6-6-6-6--99999--7~---|
A|-4-4-4-4-4-4-4--77777--7-7-7-7-7--999999---4-4-4-4-4--77777--7~---|
E|-----------------------5-5-5-5-5--777777---------------------5~---|
   . . . . . . .         . . . . .           . . . . .


Repeat Chorus:

Last Chord:
e|------|
B|------|
G|-9~---| Ngunit lahat ng ito'y palagy lang,
D|-9~---| Sa aking isip ay nag-lalaro lamang......
A|-7~---|
E|------|

End...


A.I.D.S Lyrics:

Verse 1:
Ika nga nila eight years in the making
Ngunit hindi pa rin matapos-tapos ang taping
Damdamin ang ating tanging puhunan
Sa motion picture na ating pinagtatampukan

Pre-Verse 2:
Pinagtatampukan

Verse 2:
Minsan muntik makalimutan ang linya
Ngunit buti andyan ka saglit na usap ay sapat na
Agad-agad ay sinalo ng galing ng pag-adlib mo
Muli kong naalala nabitin nating eksena

Pre-Chorus:
Parang hindi nawala

Chorus:
Dalangin sana ngayon ay hinog na
Lovestory nating hilaw na nag-umpisa
Pag nagdilim tagpo na di lumipas
Sa akin ang kulay ay di kumukupas

Bridge:
'di mahalaga kung papatok sa takilya
Istorya nating dalawa
'di mahalaga bumenta man sa masa
Istorya nating dalawa
Istorya nating dalawa

Dalangin sana ngayon ay hinog na
Lovestory nating hilaw na nag-umpisa
Pag nagdilim tagpo na di lumipas
Sa akin ang kulay ay di kumukupas

Dalangin sana ngayon ay hinog na
Lovestory nating hilaw na nag-umpisa
Ngunit lahat ng ito'y palagay lang
Sa aking isip ay naglalaro lamang

Ngunit lahat ng ito'y palagay lang
Sa aking isip ay naglalaro lamang

8.)Song:Ambisyoso
   Date Tabbed:March,2006

Gtr.Legends:
x - dead string
. - palm muting
~ - let it ring
* - artificial harmonic
/ - slide

Gtr.Tuning:Standard(Normal)

Intro prt.1:
Bass
G|-1111111111--141414--1212121212--141414--1111111111--141414--1212121212~---|
D|-1212121212--121212--1212121212--121212--1212121212--121212--1212121212~---|
A|---------------------------------------------------------------------------|
E|---------------------------------------------------------------------------|

Gtr.1:
e|------------------------------------------------|
B|------------------------------------------------| The Intro prt.1 is played only by bass guitar.
G|------------------------------------------------| You can also play this one if you didn't have
D|-44444--777--777777--777--44444--777--555555~---| a bass guitar.
A|-55555--555--555555--555--55555--555--555555~---|
E|------------------------------------------------|

Gtr.2 Enters
e|------------------------------------|
B|-7*~----------------7*~-------------| Don't know how to play harmonics??
G|-----7*~-----------------7*~--------| So play the alternative below...
D|----------7*~-----------------7*~---|
A|------------------------------------|
E|------------------------------------|

e|-14~--10~--------14~--10~---------|
B|-----------10~--------------10~---|
G|----------------------------------|
D|----------------------------------|
A|----------------------------------|
E|----------------------------------|

Intro prt.2:
Bass
G|----------------------------------------------------------------------------|
D|---4-2-4-2-0-----------------------------4-2-4-2-0--------------------------|
A|-5------------4-5-5/7-5-4-0------------5------------5-4-5-7-5-0-------------|
E|----------------------------2222-3333---------------------------2222-3333---|

Gtr.1:
e|---------------------------------|
B|---------------------------------|
G|-77-66-44-22-44-22-44-22-00000---| 2x
D|---------------------------------|
A|---------------------------------|
E|---------------------------------|

Gtr.2:
e|------------------------------------------------|
B|------------------------------------------------|     Listen to the song well to
G|------------------------------------------------| 2x  get the timing...
D|---4-4/5-4----4-----4----4/5-4----4-5-4-00000---|
A|-5----------5-----5----5-------5----------------|
E|------------------------------------------------|

Verse 1:Ang sarap sanang mag-karoon...
e|---0~-------------------|
B|-3--------2-3-2---2~----| 2x
G|--------2-------2-------|
D|------------------------|
A|------------------------|
E|------------------------|

Pre-Chorus 1:Magic Wallet na hindi...
e|---------------------------------------------|
B|---------------------------------------------|
G|-777777-------------------77777--------------|
D|-777777--444444--555555---77777--44444--5~---|
A|-555555--444444--555555---55555--44444--5~---|
E|---------222222--333333----------22222--3~---|
   ......  ......  ......   .....  .....

Chorus:Libre lng mangarap
Gtr.1
e|-2~---|
B|-3~---| Do some pluck here...
G|-2~---|
D|------|
A|------|
E|------|

Gtr.2:
e|-----------------------------------------|
B|-----------------------------------------|
G|-77777-----------------77777-------------|
D|-77777--44444--55555---77777--44444--5---|
A|-55555--44444--55555---55555--44444--5---|
E|--------22222--33333----------22222--3---|
                                       .

Managinip ka habang gising...
Bass
G|----------------|
D|----------------|
A|----------------|
E|-3--2-3-2-5-3---|
   .

Verse 2:Ang sanang sanang maging...
Play Intro prt.1(Gtr.2 Only) 4x

Pre-Chorus 2:Ka-lab team ko ang lahat...
Gtr.1:Play Pre-Chorus 1
Gtr.2:
e|--------------------------------------------------------|
B|--------------------------------------------------------|
G|-77-66-44-22-44-22-44-22-00000---77-66-44-22-44-22-0~---|
D|--------------------------------------------------------|
A|--------------------------------------------------------|
E|--------------------------------------------------------|

Repeat Chorus:

Bridge prt.1:Hindi tulad sa tindahan...
Both gtr.1 and 2:
e|-22222--33333--555555---|
B|-22222--33333--555555---|
G|------------------------| 4x
D|------------------------|
A|------------------------|
E|------------------------|

Bass
G|---------------------------------------------------------|
D|---------------------------------------------------------| 2x
A|---------------------------------------------------------|
E|-5555-7777--3333333--5555-7777--33-55-7777--33-55-7777---|

Bridge prt.2(Adlib):
Gtr.1
e|-2222222222---------------|
B|-3333333333---------------|
G|-2222222222---------------| 4x w/Low Volume
D|-------------44444-5555---|
A|-------------44444-5555---|
E|-------------22222-3333---|

Gtr.2:
e|---------------------------------------------------------------------------------------------|
B|-77777-8888--------------77-8-7-8-77-8-7-8-7-8-7--------------10101010101010-----------------|
G|-77777-7777--------------77-7-7-7-77-7-7-7-7-7-7---------------7-7-7-7-7-7-7-----------------|
D|-------------44444-5555---------------------------44444-5555------------------44444--55555---|
A|-------------44444-5555---------------------------44444-5555------------------44444--55555---|
E|-------------22222-3333---------------------------22222-3333------------------22222--33333---|

-----------------------------------------------------------|
-101010-888-101010-888-10-8--------------------------------|
--7-7-7-777--7-7-7-777--7-7--------------------------------|
-----------------------------44444--55555---44444--55555---|
-----------------------------44444--55555---44444--55555---|
-----------------------------22222--33333---22222--33333---|

Bridge prt.3(Last prt.of the Bridge)
e|------------P------------P--------------------------------|
B|------------A------------A--------------------------------|
G|------------U------------U--------------------------------|
D|-44-5-4-5-4-S-44-5-4-5-4-S-44-5-4-5-4-777777-Pick-Slide---|
A|-44-5-4-5-4-E-44-5-4-5-4-E-44-5-4-5-4-777777--------------|
E|-22-3-2-3-2-D-22-3-2-3-2-D-22-3-2-3-2-555555--------------|
      . . . .      . . . .      . . .

Outro Chorus:Libre lang mangarap....
Gtr.1:Play Chorus

Gtr.2:
e|-----------            ----------|
B|----------- Repeat     ----------|
G|-77776666-- Many Times -999999---|
D|-xxxxxxxx-- Then       -xxxxxx---|
A|-55555555--            -555555---|
E|-----------            ----------|

Las Chord:
e|-----|
B|-----|
G|-----|
D|-5---|
A|-5---|
E|-3---|
   .

End...

Ambisyoso Lyrics:

Verse 1:
Ang sarap sanang mag-karoon ng sapatos na lumilipad
Spaceship,kotse ni batman,X-ray shades at laser gun

Pre-Chorus 1:
Magic wallet na hindi nauubusan ng laman
Time machine,babalik ang oras
Ngaun din

Chorus:
Libre lang mangarap
Walang hanggan na pag-hiling
Libre lang mangarap
Managinip ka habang gising

Verse 2:
Ang sarap sanang maging bida sa sarili kong pinikula
Ninja,kumakain ng bala,magaling sumayaw parang John Travolta

Pre-Chorus 2:
Ka-lab team ko ang lahat ng magaganda at seksing artista
Kissing scene,kay Aubrey Miles o Angel Locsin

Repeat Chorus:

Bridge:
Hindi tulad sa tindahan,walang utang,walang lisatahan
Managinip at mangarap,wala kang babayaran

Repeat Chorus:

9.)Song:Discoskwela
    Date Tabbed:June,2006

Gtr.Legends:
/\ - SLIDE
~  - LET IT RING
.  - PALM MUTING

Gtr.Tuning:Standard(Normal)

Intro prt.1:
e|----------------------------------      --------------|
B|---------------------------------- 2x   --------------|
G|----------------------2/4\2/4\2--- Then --------------|
D|-444-------------444--------------      --7777-9999---|
A|-222--1/2\1/2\1--222--------------      --5555-7777---|
E|----------------------------------      --------------|

Intro prt.2:
Listen well in this prt.
e|-----------------------------------------------------------------------|
B|-----------------------------------------------------------------------|
G|-----------------------------------------------------------------------|
D|-44-3-4--7777-9999---44-3-4--3-44-3-4---44-3-4--777-999---44-3-4--4~---|
A|-22-1-2--5555-7777---22-1-2--1-22-1-2---22-1-2--555-777---22-1-2--4~---|
E|------------------------------------------------------------------2~---|

Verse 1:
Pareho bang kaliwa ang mga paa...       Huwah-huwah....
e|--------------------------------      -------------------------|
B|--------------------------------      -------------------------|
G|-------------------------------- Then -------------------------|
D|-3-4-3-4---3-4-3-4--7777--9999--      --7777--9999--11111111---|
A|-1-2-1-2---1-2-1-2--5555--7777--      --5555--7777---9-9-9-9---|
E|--------------------------------      -------------------------|
                                          ....  ....   . . . .

Chorus 1:Play Intro prt.2
Yeah,,may marmle na class room at red na carpet...

Verse 2:Play Verse 1
Pati ba kembot mo ay kulang pah...

Chorus 2:Play Intro prt.2
Yeah,ang mga nag-tuturo dito...

Bridge prt.1
Gtr.1:Pedal on(PEDAL WAH-WAH)     Gtr.2 Enters:
e|--------------------------      ----------------------|
B|--------------------------      ----------------------|
G|--------------------------      ----------------------|
D|--xxxxxxxxxxxxxxxxxxxxxx--      --7~---7~---7~---7~---|
A|--xxxxxxxxxxxxxxxxxxxxxx--      --7~---7~---7~---7~---|
E|--xxxxxxxxxxxxxxxxxxxxxx--      --5~---5~---5~---5~---|

Bridge prt.2:(Strum up and down)
e|-------------------------------------------|
B|-------------------------------------------| Repeat
G|-------------------------------------------| 4x
D|-------------------------------------------|
A|----------------------------------555555---|
E|-55555--33333-22222---55555-88888----------|

Repeat Intro prt.1:

Chorus 3:Play intro prt.2

Last Chords:
e|---------|
B|---------|
G|---------|
D|-4-3-4---|
A|-2-1-2---|
E|---------|
   . . .

End...


Discoskwela Lyrics:
Добавлено: 07.05.2012
Другие материалы по этой песне:
  • Аккорды и текст

Страница создана 07.05.2012
http://primanota.ru/kamikazee/maharot-album-chords.htm
Привет, Гость.
Предлагаем пройти революционный курс по гитаре.
Подарок от PrimaNota.Ru, забирай!