PrimaNota.ru - самый крупный в мире бесплатный архив песенных текстов, аккордов, табулатур и нот


Kaleo - No Good - таба, видео

Регистрация Запомнить меня
Войти через:  Facebook Google Twitter Vk Yandex Mail.ru

Kaleo - No Good - таба, видео

Печатать
Просмотров: 371
-------------------------------------------------------------------------------
                               NO GOOD - Kaleo
-------------------------------------------------------------------------------
Tabbed by: phil
E-mail:

Tuning: standard eadgbe

this is basically the riff which is played throughout the song.

chords used are barred E, G and A

Song starts with simple chords:
(listen to the song for the timing, its pretty easy actually)

E G E   E G E    E G E    E E    E G E    E E    E G E

e|-3b4br0---------------------3b4br0---5b6--3---0---0-----3b4br0---------------------| 2x
B|-----------0----------------------------------3------------------0-----------------|
G|-------2-2---2p0---------------------------------------------2-2---2p0-----2-2p0---|
D|-----------------2p0-2-------------------------------------------------2p0-------2-|
A|-----------------------------------------------------------------------------------|
E|-----------------------------------------------------------------------------------|



************************************

| /   slide up
| \   slide down
| h   hammer-on
| p   pull-off
| ~   vibrato
| +   harmonic
| x   Mute note
| b   Bend
| pb  Pre-bend
| br  Bend release
| pbr Pre-bend release
| brb Bend release bend

************************************
Добавлено: 15.05.2016
Вам также может быть интересно:
Другие материалы по этой песне:
  • Аккорды и текст

Страница создана 15.05.2016
http://primanota.ru/kaleo/no-good-chords.htm
Привет, Гость.
Предлагаем пройти революционный курс по гитаре.
Подарок от PrimaNota.Ru, забирай!