PrimaNota.ru - самый крупный в мире бесплатный архив песенных текстов, аккордов, табулатур и нот


Kaleo - Way Down We Go - таба, видео

Регистрация Запомнить меня
Войти через:  Facebook Google Twitter Vk Yandex Mail.ru

Kaleo - Way Down We Go - таба, видео

Печатать
Просмотров: 706
-------------------------------------------------------------------------------
                             Way Down We Go - Kaleo
-------------------------------------------------------------------------------
Tabbed by: Oli

Tuning: Standard


Intro
e|-6---4---2-6-6-|
B|-6---4---2-7-6-|
G|-6---5---3-8-6-|
D|-8---6---4-8-8-|
A|-8---6---4-6-8-|
E|-6---4---2---6-|

Verse
e|-6-6-xx---2x2x---6---6--6-6-6-6-6---|
B|-6-6-xx---2x2x---7---7--7-7-7-7-7---|
G|-6-6-xx---3x3x---8---8--8-8-8-8-8---|
D|-8-8-xx---4x4x---8---8--8-8-8-8-8---|
A|-8-8-xx---4x4x---6---6--6-6-6-6-6---|
E|-6-6-xx---2x2x----------------------|

Solo
e|-------------------------------------------------------------------------------------------------|
B|-------------------------------------------------------------------------------------------------|
G|---------6-----8b10br8-6-8b10br8-6----------6b-----------8b10br8-6-8b10br8-----------8b108p6-----|
D|-----6h8---8-----------------------8-6-8-------8-6-6-----------------------------------------8p6-|
A|-6h8---------------------------------------------------------------------------------------------|
E|-------------------------------------------------------------------------------------------------|

e|-------------6--------------------------------------------------------------|
B|-----------6---9------------------------------------------------------------|
G|----8b10br8-----------------------------------------------------------------|
D|----------------------------------------------------------------------------|
A|----------------------------------------------------------------------------|
E|----------------------------------------------------------------------------|




| h   hammer-on
| p   pull-off
| x   Mute note
| b   Bend

| br  Bend release
| pbr Pre-bend release
| brb Bend release bend
Добавлено: 15.05.2016
Другие материалы по этой песне:
  • Аккорды и текст

Страница создана 15.05.2016
http://primanota.ru/kaleo/way-down-we-go-chords.htm
Привет, Гость.
Предлагаем пройти революционный курс по гитаре.
Подарок от PrimaNota.Ru, забирай!