PrimaNota.ru - самый крупный в мире бесплатный архив песенных текстов, аккордов, табулатур и нот


Julien Baker - Something - таба, видео

Регистрация Запомнить меня
Войти через:  Facebook Google Twitter Vk Yandex Mail.ru

Julien Baker - Something - таба, видео

Печатать
Просмотров: 154
Уроки эстрадного вокала в Санкт-Петербурге
-------------------------------------------------------------------------------
                             SOMETHING - Julien Baker
-------------------------------------------------------------------------------
Tabbed by: Ben

Tuning: Standard

Tip: Let the bass notes (bottom E or A string) ring

Intro Pt. 1 (3x)
   C#min        Amaj7        E
e|-----------0------------0-------------0--7h9p7----------------------------------|
B|---0---9--------0---7--------0---7-------------7p0------------------------------|
G|-----9---9--------9---9--------9---9--------------------------------------------|
D|--------------------------------------------------------------------------------|
A|--------------0-----------------------------------------------------------------|
E|-9-------------------------0----------------------------------------------------|


Intro Pt. 2 (1x)
e|-----------0~------------~-----------------------------------------------------|
B|---0---9-------0---7-----------------------------------------------------------|
G|-----9---9-------9---9~--------------------------------------------------------|
D|-------------------------------------------------------------------------------|
A|-------------0-----------------------------------------------------------------|
E|-9-----------------------------------------------------------------------------|

Verse
   C#min    Amaj7    E
e|------------------------------------|
B|---9--------9--------9--------9-----|
G|-----9--------9--------9--------9---|
D|------------------------------------|
A|----------0-------------------------|
E|-9-----------------0-------0--------|

Bridge ("In the dark...")
   Amaj7 (4x)   F#min9 (4x)
e|--------------------------|
B|-------9------------9-----|
G|-----9---9--------9---9---|
D|---7-------7----7-------7-|
A|-0------------9-----------|
E|--------------------------|

Then back to verse.

The video shows how Julien plays it: https://www.youtube.com/watch?v=QLhLileFX9k

Enjoy!

************************************
| h   hammer-on
| p   pull-off
| ~   vibrato
************************************
Добавлено: 22.05.2016
Вам также может быть интересно:
Другие материалы по этой песне:
  • Аккорды и текст

Страница создана 22.05.2016
http://primanota.ru/julien-baker/something-chords.htm
Привет, Гость.
Предлагаем пройти революционный курс по гитаре.
Подарок от PrimaNota.Ru, забирай!