PrimaNota.ru - самый крупный в мире бесплатный архив песенных текстов, аккордов, табулатур и нот


Julien Baker - Brittle Boned - таба, видео

Регистрация Запомнить меня
Войти через:  Facebook Google Twitter Vk Yandex Mail.ru

Julien Baker - Brittle Boned - таба, видео

Печатать
Просмотров: 81
Intro & verse


e---------------------------------------------------------------------------------------------------------------
b---------------------------------------------------------------------------------------------------------------
g---------------------------------------------------------------------------------------------------------------
d--------2----------2----------------3------------3---------------2----------2--------------2-----------2-------
a--3--3----3--3--3-----3------5--5------5--5--5------5------0--0----0--0--0-----0-------------------------------
E------------------------------------------------------------------------------------1--1------1--1--1------1---
              C                         D                         A                          F

"This will be quick...."


e---------------------------------------------------------------------------------------------------------------
b---------------------------------------------------------------------------------------------------------------
g---------------------------------------------------------------------------------------------------------------
d-------------2------------------2---------------2------------2-------------------------------------------------
a-----0---0------0------3---3--------3-------------------------------------------------------------------------
E-----------------------------------------1--1------1--1--1---------1------------------------------------------
           A                     C                 F                           X6

 "Pulls is slow..."

Back to Verse, You can strum the notes as power chords as the song builds up.



"Cause I'm so good at hurting myself"

e---------------------------------------------------------------------------------------------------------------
b---------------------------------------------------------------------------------------------------------------
g---------------------------------------------------------------------------------------------------------------
d-------------2------------------2---------------2------------2-------------------------------------------------
a-----0---0------0------3---3--------3-------------------------------------------------------------------------
E-----------------------------------------1--1------1--1--1---------1------------------------------------------


Enjoy :)
Добавлено: 22.05.2016
Другие материалы по этой песне:
  • Аккорды и текст

Страница создана 22.05.2016
http://primanota.ru/julien-baker/brittle-boned-chords.htm
Привет, Гость.
Предлагаем пройти революционный курс по гитаре.
Подарок от PrimaNota.Ru, забирай!