PrimaNota.ru - самый крупный в мире бесплатный архив песенных текстов, аккордов, табулатур и нот


Judas Priest - One On One - текст песни, таба, видео

Регистрация Запомнить меня
Войти через:  Facebook Google Twitter Vk Yandex Mail.ru

Judas Priest - One On One - текст песни, таба, видео

Печатать
Просмотров: 206
Уроки эстрадного вокала в Санкт-Петербурге
Авторы музыки: Glenn Tipton, Kenneth Downing

Song: One on One
Album: Demolition

Tabbed by Everton Alceu Carara (carara747@bol.com.br)
E-mail me with Corrections & Comments.


 Intro: 4x					4x
|------------------------------------|------------------------------------|-----|
|------------------------------------|------------------------------------|-----|
|--9-----9---------9-----7---10-7----|------------------------------------|-----|
|--9-----9---------9-----7---10-7----|---2-----5-----2-----5-----2---5----|--2--|
|--7-----7---------7-----5----8-5----|---2-----5-----2-----5-----2---5----|--2--|
|----0-0---0-0-0-0---0-0---0------0--|---0-0-0-3-0-0-0-0-0-3-0-0-0-0-3-0--|--0--|
     . .   . . . .   . .   .      .        . .   . .   . .   . .   .   .


 Verse
|---------------------------|
|---------------------------|
|--9-7-9-----------7-10--7--|
|--9-7-9-----------7-10--7--|
|--7-5-7-----------5--8--5--|
|--------0-0-0-0-0----------|
	 . . . . .

 Pre-Chorus
|-----------------------------------------|-------------------------------------|
|-----------------------------------------|-------------------------------------|
|-----------------------------------------|-------------------------------------|
|--2--5--7--7/87--5---2--5--7--7-7--7-7--|--2--5--7--7/87-5--5-----5-----5------|
|--2--5--7--7/87--5---2--5--7--7-7--7-7--|--2--5--7--7/87-5--5-----5-----5------|
|--0--3--5--5/65--3---0--3--5--5-5--5-5--|--0--3--5--5/65-3--3-3-3-3-3-3-3------|


 Chorus: 2x
|-------------------------------------------------------------|
|-------------------------------------------------------------|
|--8-7-7-------7---9---10---12----8-7-7-------7---9---10---9--|
|--8-7-7-------7---9---10---12----8-7-7-------7---9---10---9--|
|--6-5-5-------5---7----8---10----6-5-5-------5---7----8---7--|
|--------0-0-0---0---0----0-------------0-0-0---0---0----0----|
	 . . .   .   .    .             . . .   .   .    .
Downloaded From: www.ogregod.com
Добавлено: 27.06.2012
Другие материалы по этой песне:

Страница создана 20.05.2012
http://primanota.ru/judas-priest/one-on-one-chords.htm
Привет, Гость.
Предлагаем пройти революционный курс по гитаре.
Подарок от PrimaNota.Ru, забирай!