PrimaNota.ru - самый крупный в мире бесплатный архив песенных текстов, аккордов, табулатур и нот


Judas Priest - We Are The Pigs - таба, видео

Регистрация Запомнить меня
Войти через:  Facebook Google Twitter Vk Yandex Mail.ru

Judas Priest - We Are The Pigs - таба, видео

Печатать
Просмотров: 203
Уроки эстрадного вокала в Санкт-Петербурге
+++++++++++++++++++++++++++++++++++++++++++++++++++++++++++++++++++++++++++++                         
                     WE ARE THE PIGS-JUDAS PRIEST
+++++++++++++++++++++++++++++++++++++++++++++++++++++++++++++++++++++++++++++


intro:
======

|---7-----------|------------------0-|
|-----8p7-------|--------10\8----0---|
|---------9-7---|--------------7-----|     play 3 times
|-------------9-|---9/11-11\9--------|
|---------------|-0------------------|
|-0-------------|--------------------|


|---7-----------|-------------\0-|
|-----8p7-------|-5-5-5-5-5--5\0-|
|---------9-7---|-6-6-6-6-6--6\1-|
|---------------|-7-7-7-7-7--7\2-|
|---------------|-7-7-7-7-7--7\2-|
|-0-------------|-5-5-5-5-5--5\0-|
                          

Verse:
======
          
|----0-----0----|---------------|            |------------------|
|----0--3-(0)-0-|-2-2--0--------|  4 times   |--2-2-2-0h2-2-0h2-|
|---------------|---2--0--------|  per verse |--2-2-2-0h2-2-0h2-|
|-2-------------|---2--0--------|  and then: |--2-2-2-0h2-2-0h2-|
|-2-------------|-------------0-|            |--0-0-0-----------|
|-0-------------|-----(3)-2-3---|            |------------------|



Chorus:
=======


             |-8---------|------------0-|-7-----7--0-|------|-8----------|------------0-|
|---8h10p8--|-8-8----8p7---|-7--8--7--0-|------|---8h10p8---|-8-8----8p7---|
|-----------|---7----------|-7--7--7--0-|------|------------|---7----------|
|-----------|-----9--------|----9-------|------|------------|-----9--------|
|-----------|--------------|-#----------|---2--|------------|--------------|
|-----------|--------------|------------|---0--|------------|--------------|
we are the pigs........                         we are the stars of the fire


Solo
====
|-3p0-3p0-----------------------|------------------------|-----------------3-|
|-----3p0---------2-------------|------------------------|-----------0h2h4---|
|---------2p0-2p0-2-2b3-2b3-2b3-|-2p0----0h2p0---0h2p0---|-0h2p0h2-4---------|
|-------------------------------|-----2--------2-------2-|---------4---------|
|-------------------------------|------------------------|-------------------|
|-------------------------------|------------------------|-------------------|

 
|-------3h5-5-5p3-|---3---------------|--------------------|----------------------|                  
|-3h5-5-----------|-5---5p3p0-3h5-3h5-|-5h7-7h8-8-10-10h12-|-12-15-15-17-17-15-12-|
|-----------------|-------------------|--------------------|----------------------|
|-----------------|-------------------|--------------------|----------------------|
|-----------------|-------------------|--------------------|----------------------|
|-----------------|-------------------|--------------------|----------------------|

|-8--8p7h8p7-------|-----------|-----------------|-------------------|
|------------8-----|---------8-|-8p7---7---------|-------------------|
|--------------7h9-|-7-7-7h9---|-----9---9p7---7-|-------------------|
|------------------|-----------|-------------9---|-9p7-5---------5-7-|
|------------------|-----------|-----------------|-------7-5-5h7-----|
|------------------|-----------|-----------------|-------------------|

|------------------|---------------|-------------|---------------|
|------------------|---------------|-------------|---------------|
|-----7------------|---------------|-------------|---------------|
|-7b8--7b8b7-5---5-|-------7b8-7b8-|-7b8b7p5---7-|-7-7b9-7b9-9\2-|
|--------------7---|-7p5-5---------|---------7---|---------------|
|------------------|---------------|-------------|---------------|
Добавлено: 27.07.2012
Другие материалы по этой песне:
  • Аккорды и текст

Страница создана 27.07.2012
http://primanota.ru/judas-priest/we-are-the-pigs-chords.htm
Привет, Гость.
Предлагаем пройти революционный курс по гитаре.
Подарок от PrimaNota.Ru, забирай!