PrimaNota.ru - самый крупный в мире бесплатный архив песенных текстов, аккордов, табулатур и нот


Judas Priest - Breeaking the law - бас-таба, видео

Регистрация Запомнить меня
Войти через:  Facebook Google Twitter Vk Yandex Mail.ru

Judas Priest - Breeaking the law - бас-таба, видео

Печатать
Просмотров: 182


Breaking The Law

Tabbed by Sam Hodge, Sense:

Tom James       : Lead Guitar
Sam Hodge       : Bass Guitar (rocks ) , Vocals
John MacQuarrie : Drums
Max Langley     : Rhythm Guitar


introduction
G|---------------------------------------------------------------------
D|---------------------------------------------------------------------
A|---------------------------------------------------------------------
E|--5-5-5-5-5-5-5-5-5-5-5-5-5-5-5-5-1-1-1-1-1-1-1-1-3-3-3-3-3-3-3-3----

verse 1
part 1
G|---------------------------------------------------------------------
D|---------------------------------------------------------------------
A|----------------------------------3-3-3------------------------------
E|--5-5-5-5-5-5-5-5-5-5-5-5-5-5-5-5-------3-3-3----5-5-5-5-5-5-5-5-----

part 2
G|---------------------------------------------------------------------
D|---------------------------------------------------------------------
A|--------------------------------3-3-3-3-3-3-3-3-3-3-3-3-3-3-3-3------
E|--1-1-1-1-1-1-1-1-1-1-1-1-1-1-1--------------------------------------

G|---------------------------------------------------------------------
D|---------------------------------------------------------------------
A|---------------------------------------------------------------------
E|--1-1-1-1-1-1-1-1-1-1-1-1-1-1-1---0-0-0-0-0-0-0-0-0-0-0-0-0-0-0------

chorus
G|---------------------------------------------------------------------
D|--------------------------------5-----------------------------5-5--
A|---------------------------------------------------------------------
E|--5-5-5-5-5-5-5-5-5-5-5-5-5-5-5----5-5-5-5-5-5-5-5-5-5-5-5-5-5-------

verse 2
part 1
G|---------------------------------------------------------------------
D|---------------------------------------------------------------------
A|----------------------------------3-3-3------------------------------
E|--5-5-5-5-5-5-5-5-5-5-5-5-5-5-5-5-------3-3-3-5-5-5-5-5-5-5-5--------

G|---------------------------------------------------------------------
D|-------------------------------------------------2-2-2-2-2-2-2-2-2---
A|----------------------------------3-3-3---5-5-5----------------------
E|--5-5-5-5-5-5-5-5-5-5-5-5-5-5-5-5------------------------------------

part 2
G|---------------------------------------------------------------------
D|---------------------------------------------------------------------
A|--------------------------------3-3-3-3-3-3-3-3-3-3-3-3-3-3-3-3------
E|--1-1-1-1-1-1-1-1-1-1-1-1-1-1-1--------------------------------------


G|---------------------------------------------------------------------
D|---------------------------------------------------------------------
A|---------------------------------------------------------------------
E|--1-1-1-1-1-1-1-1-1-1-1-1-1-1-1---0-0-0-0-0-0-0-0-0-0-0-0-0-0-0------


interlude 1
G|---------------------------------------------------------------------
D|---------------------------------------------------------------------
A|--2-2-2-2-2-2-2-2-2-2-2-2--5-5-5-------------------------------------
E|---------------------------------------------------------------------

interlude 2 (during solo)
G|---------------------------------------------------------------------
D|------------------3-3-3--------------------------------5-------------
A|--5-5-5-5-5-5-5-5-------3-3-3-3--5-5-5-5-5-5-5--8-8-8----------------
E|---------------------------------------------------------------------

bridge
G|---------------------------------------------------------------------
D|---------------------------------------------------------------------
A|---------------------------------------------------------------------
E|--5-------1---3---5-5-5-5--1-1-1-1--3-3-3-3-3-3-3--------------------

ending riff
G|---------------------------------------------------------------------
D|---------------------------------------------------------------------
A|---------------------------------------------------------------------
E|--5-5-5-5-5-5-5-5-5-5-5-5-5-5-5-5-1-1-1-1-1-1-1-1-3-3-3-3-3-3-3-3----

last riff
G|----------------------------------------------------------------------
D|----------------------------------------------------------------------
A|----------------------------------------------------------------------
E|--5-5-5-5-5-5-5-5-5-5-5-5-5-5-5-5-1-1-1-1-1-1-1-1-3-3-3-3-3-3-3-3-3-5-

playing order:

introduction     x2

verse 1
part 1           x2
part 2           x1

chorus           x4

verse 2
part 1           x1
part 2           x1

interlude 1      x4

interlude 2      x2

bridge           x1

ending riff      x5

last riff        x1





| /  slide up
|   slide down
| h  hammer-on
| p  pull-off
| ~  vibrato
| +  harmonic
| x  mute note


Добавлено: 10.08.2013
Другие материалы по этой песне:
  • Аккорды и текст

Страница создана 10.08.2013
http://primanota.ru/judas-priest/breeaking-the-law-chords.htm
Привет, Гость.
Предлагаем пройти революционный курс по гитаре.
Подарок от PrimaNota.Ru, забирай!