PrimaNota.ru - самый крупный в мире бесплатный архив песенных текстов, аккордов, табулатур и нот


Jonathan Morali - Life Is Strange Ending Credits - таба, видео

Регистрация Запомнить меня
Войти через:  Facebook Google Twitter Vk Yandex Mail.ru

Jonathan Morali - Life Is Strange Ending Credits - таба, видео

Печатать
Просмотров: 397
-------------------------------------------------------------------------------
            Life is Strange Ending Credits - Jonathan Morali
-------------------------------------------------------------------------------
Tabbed by: imjeans (sarah)

Song: https://www.youtube.com/watch?v=SddNAu0oMiU

Tuning: standard

Back guitar

e|---------------------------------------------------------------------------|
B|-----------------------2---------------------------------------------------|
G|--------2---------2--------2----------2------------------------------------|
D|---0--------0-------------------0------------------------------------------|
A|---------------------------------------------------------------------------|
E|---------------------------------------------------------------------------|

Other guitar:

e|-----------------------5---------------------------------------------------|
B|---------------------------------------------------------------------------|
G|---------------------------------------------------------------------------|
D|---------------------------------------------------------------------------|
A|---------------------------------------------------------------------------|
E|---------------------------------------------------------------------------|

Lead guitar

Verse 1

e|----3----2----0----2h----2-------------------------------------------------|
B|---------------------------------5----/3------3-----optional-(0)-----------|
G|--------------------------------------------------------------------(2)----|
D|---------------------------------------------------------------------------|
A|---------------------------------------------------------------------------|
E|---------------------------------------------------------------------------|

e|----3----2----5------------------------------------------------------------|
B|--------------------3-----2-----3-----3------3-----------------------------|
G|--------------------------------------0------------------------------------|
D|---------------------------------------------------------------------------|
A|---------------------------------------------------------------------------|
E|---------------------------------------------------------------------------|

Chorus

Fingers D chord

e|---------------0-----2------------------0-----2------------------0----2--------|
B|----0----3------------------------3-----------------0-----3--------------------|
G|----------------------------2-----------------------------------------------2--|
D|-------------------------------------------------------------------------------|
A|-------------------------------------------------------------------------------|
E|-------------------------------------------------------------------------------|

Repeat Verse 


************************************

| /   slide up
| h   hammer-on



************************************
Добавлено: 12.09.2015
Другие материалы по этой песне:
  • Аккорды и текст

Страница создана 12.09.2015
http://primanota.ru/jonathan-morali/life-is-strange-ending-credits-chords.htm
Привет, Гость.
Предлагаем пройти революционный курс по гитаре.
Подарок от PrimaNota.Ru, забирай!