PrimaNota.ru - самый крупный в мире бесплатный архив песенных текстов, аккордов, табулатур и нот


Jonathan Morali - Life Is Strange - End Credits Max And Chloe - таба, видео

Регистрация Запомнить меня
Войти через:  Facebook Google Twitter Vk Yandex Mail.ru

Jonathan Morali - Life Is Strange - End Credits Max And Chloe - таба, видео

Печатать
Просмотров: 285
-------------------------------------------------------------------------------
                        Jonathan Morali - End Credits (Life Is Strange)
-------------------------------------------------------------------------------
Tabbed by: Marta Mayer

After releasing my set of covers on YouTube (https://www.youtube.com/watch?v=waY8jaL-3Es), many 
people asked for tutorials or tabs for particular songs. So here you are, here is the wonderful 
music that can be heard in the end of the game! This tab is obviously not for the melodic line, 
but for the accompanying guitar (in my vid it's the upper screen). I warn you, it's not 
the easiest song. I tried to tab it in the simpliest way possible, but please - do read 
carefully, before giving up :)

Tip: The best fingers positions for the first two chords are like this:
pinkie finger: A string, 5th fret 
ring finger: D string, 4th fret
index finger: G string, 2nd fret
middle finger: B string, 3rd fret

Tuning: Standard

Position 1 (0:00 - 0:20)

e|------------------------------------------------------------------------------------------------------|
B|----------------3----------------------3-------------------------3-------------------------3----------|
G|-------------------2------2-----2----------2-----------2-----2-------2------------2-----2-------2-----|
D|------4------4---------------------4-----------4--------------------------4-------------------------4-|
A|--5------5------------5-------5--------------------5------5--------------------5------5---------------|
E|------------------------------------------------------------------------------------------------------|

Now, here comes the first change.
Position 2 (0:20 - 0:24)
Tip: The position is very similar to the first one. All you have to do, is to move your index finger to 
the E string, 3rd fret.

e|----------------------------------------------------------------------------|
B|---------------3-----------------------3------------------------------------|
G|-----0-------------0----------0--------------0------------------------------|
D|-----------4-----------4------------4---------------4-----------------------|
A|----------------------------------------------------------------------------|
E|--3-----3------------------3----3-------------------------------------------|

And then go back to position 1. 

Here comes the 3rd position (basically the Em chord)(in the song it's on 1:01)

e|------------------0---------------------------------------------------------|
B|----------------------0-----------------------------------------------------|
G|----------0---------------0-------------------------------------------------|
D|------2-------2---------------2---------------------------------------------|
A|----------------------------------------------------------------------------|
E|---0------------------------------------------------------------------------|

And right after is the 4th position (it's Bm barre chord) (1:03 approximately)

e|------------------------2---------------------------------------------------|
B|-----------------------------2----------------------------------------------|
G|---------3------------------------3-----------------------------------------|
D|-------------------4-------------------4------------------------------------|
A|----------------------------------------------------------------------------|
E|----2---------2-------------------------------------------------------------|

AND THEN SWITCH TO POSITION 1 AGAIN.


Now, I don't play this part in my video since I cut it out accidentally, but in case you want to continue 
with the song (and obviously you do), the chords are basically the same, until 2:13.

5th position (G chord, but the barre version) (it comes roughly on 2:14)

e|---------------------------------------------------------------------------------|
B|-----------------------3-------------------------------------------3-------------|
G|----------------------------4-----------------------------------------4----------|
D|--------------5-----------------5------------------------5-----------------5-----|
A|---------5--------5------------------5-------------5---------5-----------------5-|
E|-----3----------------------------------------3----------------------------------|

Right after the 6th position (A chord)

e|--------------------------------------------------------------------------------|
B|-------------2------------------------------------------------------------------|
G|---------2------2---------------------------------------------------------------|
D|-------2-----------2------------------------------------------------------------|
A|----0---------------------------------------------------------------------------|
E|--------------------------------------------------------------------------------|

And then this thing, I don't even know what chord it is, so let's call it the 7th position

e|-------------------0-----------------------------------------------------------|
B|------------------------2------------------------------------------------------|
G|-----------0----------------0--------------------------------------------------|
D|-------2-------2----------------2----------------------------------------------|
A|---1---------------------------------------------------------------------------|
E|-------------------------------------------------------------------------------|

Then Bm chord this way: 

e|-----------------2----------------------------------2--------------------------|
B|-------------3------3---------------------------3-------3----------------------|
G|---------4--------------4------------------4-----------------4-----------------|
D|-----4----------------------4----------4-------------------------4-------------|
A|--2--------------------------------2-------------------------------------------|
E|-------------------------------------------------------------------------------|

After this, you go with the 3th (Em chord) and 4th position (Bm chord). The final position is the 1st one.

And that's it.
Добавлено: 23.06.2016
Другие материалы по этой песне:
  • Аккорды и текст

Страница создана 23.06.2016
http://primanota.ru/jonathan-morali/life-is-strange-end-credits-max-and-chloe-chords.htm
Привет, Гость.
Предлагаем пройти революционный курс по гитаре.
Подарок от PrimaNota.Ru, забирай!