PrimaNota.ru - самый крупный в мире бесплатный архив песенных текстов, аккордов, табулатур и нот


John Scofield - Boozer - таба, видео

Регистрация Запомнить меня
Войти через:  Facebook Google Twitter Vk Yandex Mail.ru

John Scofield - Boozer - таба, видео

Печатать
Просмотров: 149
Авторы музыки: John Scofield

-------------------------------------------------------------------------------
                             Boozer - John Scofield
-------------------------------------------------------------------------------
Tabbed by: zipppy2006

Tuning: Standard

He may be playing some of these notes closer to the nut.

Section A:

e|---------------------------------------------------------------------------|
B|---------------11-12b13----------------------------------------------------|
G|-------9/10-13-------------13\11----9----9---------------------------------|
D|----11---------------------------11---11---11----10\9---7------------------|
A|------------------------------------------------------9---9----------------|
E|---------------------------------------------------------------------------|

e|----0--0-----0---0--0--0--0------------------------------------------------|
B|----10-10----10--10-10-10-10-----------------------------------------------|
G|----8--8-----7---8--8--8--8------------------------------------------------|
D|----10-10----10--10-10-10-10-----------------------------------------------|
A|---------------------------------------------------------------------------|
E|---------------------------------------------------------------------------|

Section B:

e|---------------------------------------------------------------------------|
B|---------------------------------------------------------------------------|
G|---------8--6-6-8---7/8-8-6-6-5------8--6-6-8--8-8-9-9-9-------------------|
D|----9/10--------------------------10---------------------------------------|
A|---------------------------------------------------------------------------|
E|---------------------------------------------------------------------------|

Section C:

e|---12--x---------------0--0--0--0------------------------------------------|
B|--------x--------------11-11-11-11-----------------------------------------|
G|---------x--3----------10-10-10-10-----------------------------------------|
D|----------5---5--------9--9--9--9------------------------------------------|
A|---------------------------------------------------------------------------|
E|---------------------------------------------------------------------------|


| /  slide up
| \  slide down
| h  hammer-on
| p  pull-off
| ~  vibrato
| +  harmonic
| x  Mute note
===============================================================================
Добавлено: 21.02.2012
Другие материалы по этой песне:
  • Аккорды и текст

Страница создана 21.02.2012
http://primanota.ru/john-scofield/boozer-chords.htm
Привет, Гость.
Предлагаем пройти революционный курс по гитаре.
Подарок от PrimaNota.Ru, забирай!