PrimaNota.ru - самый крупный в мире бесплатный архив песенных текстов, аккордов, табулатур и нот


John Scofield - Hottentot - таба, видео

Регистрация Запомнить меня
Войти через:  Facebook Google Twitter Vk Yandex Mail.ru

John Scofield - Hottentot - таба, видео

Печатать
Просмотров: 158
Авторы музыки: John Scofield

Artist: John Scofield
Song: HOTTENTOT

~~~~~~~~~~~~~~~~~~~~~~~~~~~~~
Tab: Irfan Bahadir Katipoglu
Mail: bahadrix@yahoo.com
URL: bahadir.hikayesi.com
~~~~~~~~~~~~~~~~~~~~~~~~~~~~~

I had heard this song out of times before, for example on the tv generic.
Later I learned that this song belong to Scofield and I began to played.
This song is both fun to play and to listen.I couldn't tab solo parts of the
song, because it would be better to play the solo parts with instant
inspration for the song is Jazz/Funk.
and also you will understand how I use the rest notes when you listen to the
song.

Please feel free to send me a mail. I'm waiting your comments.

NOTE: To see the tab correctly use the Courier similar font.
HINT: Use soft handling..

GLOSSARY
~~~~~~~~~~~~~~~~~~~
h Hammer-on
p Pull-off
~ Vibrato
b Bend
r Release
. Whole Note
T Tap
~~~~~~~~~~~~~~~~~~


Riff I

E||-------------------------------|
B||--6-6.--9b11r9p6-----6h9p6~~---|
G||-----------------8-------------|
D||-------------------------------|
A||-------------------------------|
E||-------------------------------|



E||---------------------------------------------------||
B||---------------------------------------------------||
G||----9/8--9.--10p8---------6b-----------------------||
D||-------------------11--8------8.--6--7h8-----------||
A||---------------------------------------------------||
E||---------------------------------------------------||




Riff IB

E||-------------------------------|
B||--6-6.--9b11.r9p6-----6h9p6~~--|
G||-----------------8-------------|
D||-------------------------------|
A||-------------------------------|
E||-------------------------------|


E||---------------------------------------------------||
B||---------------------------------------------------||
G||----9/8--9.--10p8---------6b-----------------------||
D||-------------------11--8------8.--6--7h8-----------||
A||---------------------------------------------------||
E||---------------------------------------------------||



Riff II

E||--------------------------------------------|
B||--------------------------------------------|
G||---------9h10-----9------r8-----8-----------|
D||--8.-8.--------8.----8.------8----11.--8~---|
A||--------------------------------------------|
E||--------------------------------------------|

E||---------------------------------------------||
B||---------------------------------------------||
G||---------10~--------9~-----r8------8---------||
D||-8.-8-8------8.-8.----8.-------8------11.-8~-||
A||---------------------------------------------||
E||---------------------------------------------||

Riff IIB

E||----------12h13-------12~------11h12p11-11b-------|
B||-11.-11.---------11.------11.---------------11-11-|
G||--------------------------------------------------|
D||--------------------------------------------------|
A||--------------------------------------------------|
E||--------------------------------------------------|

             T     T
E||-----------12h13------12~------11h12p11p9-11p9----------||
B||--11.-11.---------11.------11.------------------11-11---||
G||--------------------------------------------------------||
D||--------------------------------------------------------||
A||--------------------------------------------------------||
E||--------------------------------------------------------||


FLOW:
~~~~~~~~~~~~~~~~~~~
4
Riff I
Riff IB
4
Riff I
Riff II
Riff IIB
Riff I

Solo Part(;
~~~~~~~~~~~~~~~~~~~


-Bahadrix (bahadrix@yahoo.com)
     
Добавлено: 14.11.2013
Другие материалы по этой песне:
  • Аккорды и текст

Страница создана 14.11.2013
http://primanota.ru/john-scofield/hottentot-chords.htm
Привет, Гость.
Предлагаем пройти революционный курс по гитаре.
Подарок от PrimaNota.Ru, забирай!