PrimaNota.ru - самый крупный в мире бесплатный архив песенных текстов, аккордов, табулатур и нот


John Murphy - In The House, In The Heartbeat - таба, видео

Регистрация Запомнить меня
Войти через:  Facebook Google Twitter Vk Yandex Mail.ru

John Murphy - In The House, In The Heartbeat - таба, видео

Печатать
Просмотров: 610
John Murphy - In The House In The Heartbeat
 
Used in:
28 Day Later Soundtrack
Peugeot 206 Advert
 
Tabbed By W0f
wof@wof.me.uk
03/10/2003
 
 
4 minutes 16 seconds version
(x:xx Time)
 
 
 
 
Guitar 3 (Piano)
e--------17--------17--------17--------17------------------------
B---15--------15--------15--------15-----------------------------
G--------------------------------------------let ring------------
D---------------------------------------repeat throughout--------
A----------------------------------------------------------------
E----------------------------------------------------------------
 
 
 
 
0:06
Guitar 1 (Clean Acoustic)
E----------------------------------------------------------------
B----------------------------------------------------------------
G----------------------------------------------------------------
D----------------------------------------------------------------
A---1--let ring--------------------------------------------------
E----------------------------------------------------------------
 
0:12
    D  D            D  D
E---10-10---x-x-x---10-10----------------------------------------
B---10-10---x-x-x---10-10----------------------------------------
G---12-12---x-x-x---12-12-----repeat x2--------------------------
D---12-12---x-x-x---12-12----------------------------------------
A---12-12---x-x-x---12-12----------------------------------------
E---10-10---x-x-x---10-10----------------------------------------
 
    Bb Bb           Bb Bb
E---6--6----x-x-x---6--6-----------------------------------------
B---6--6----x-x-x---6--6-----------------------------------------
G---8--8----x-x-x---8--8------repeat x2--------------------------
D---8--8----x-x-x---8--8-----------------------------------------
A---8--8----x-x-x---8--8-----------------------------------------
E---6--6----x-x-x---6--6-----------------------------------------
 
    E#  E#  E#  E#  E#  E#  E#
E---13--13--13--13--13--13--13-----------------------------------
B---13--13--13--13--13--13--13-----------------------------------
G---15--15--15--15--15--15--15-----------------------------------
D---15--15--15--15--15--15--15-----------------------------------
A---15--15--15--15--15--15--15-----------------------------------
E---13--13--13--13--13--13--13-----------------------------------
 
    E   E   E   E   E
E---12--12--12--12--12-------------------------------------------
B---12--12--12--12--12-------------------------------------------
G---14--14--14--14--14-------------------------------------------
D---14--14--14--14--14-------------------------------------------
A---14--14--14--14--14-------------------------------------------
E---12--12--12--12--12-------------------------------------------
 
0:31
E---2------------------------------------------------------------
B---3------------------------------------------------------------
G---2----let ring--(Gong)----------------------------------------
D---0------------------------------------------------------------
A---0------------------------------------------------------------
E----------------------------------------------------------------
 
 
 
 
0:31
Guitar 2 (Detuned Sound with Reverb)
E---------------0-0---1-1---------------0-0---1-1----------------
B---2-2---3-3---------------2-2---3-3----------------------------
G----------------------------------------------------repeat------
D----------------------------------------------------------------
A----------------------------------------------------------------
E----------------------------------------------------------------
 
 
 
2:13
Guitar 1 (Overdriven)
    D  D            D  D
E---10-10---x-x-x---10-10----------------------------------------
B---10-10---x-x-x---10-10----------------------------------------
G---12-12---x-x-x---12-12-----repeat x2--------------------------
D---12-12---x-x-x---12-12----------------------------------------
A---12-12---x-x-x---12-12----------------------------------------
E---10-10---x-x-x---10-10----------------------------------------
 
    Bb Bb           Bb Bb
E---6--6----x-x-x---6--6-----------------------------------------
B---6--6----x-x-x---6--6-----------------------------------------
G---8--8----x-x-x---8--8------repeat x2--------------------------
D---8--8----x-x-x---8--8-----------------------------------------
A---8--8----x-x-x---8--8-----------------------------------------
E---6--6----x-x-x---6--6-----------------------------------------
 
    E#  E#  E#  E#  E#  E#  E#
E---13--13--13--13--13--13--13-----------------------------------
B---13--13--13--13--13--13--13-----------------------------------
G---15--15--15--15--15--15--15-----------------------------------
D---15--15--15--15--15--15--15-----------------------------------
A---15--15--15--15--15--15--15-----------------------------------
E---13--13--13--13--13--13--13-----------------------------------
 
    E   E   E   E   E
E---12--12--12--12--12-------------------------------------------
B---12--12--12--12--12-------------------------------------------
G---14--14--14--14--14-------------------------------------------
D---14--14--14--14--14-------------------------------------------
A---14--14--14--14--14-------------------------------------------
E---12--12--12--12--12-------------------------------------------
 
 
 
 
3:30
Outro (Clean)
E---9--------9--------11--------11-------------------------------
B-------10-------10--------10--------10--------------------------
G----------------------------------------------------------------
D----------------------------------------------------------------
A----------------------------------------------------------------
E----------------------------------------------------------------
 
E---9--------9--------11--------11-------------------------------
B-------10-------10--------10--------10--------------------------
G----------------------------------------------------------------
D----------------------------------------------------------------
A----------------------------------------------------------------
E----------------------------------------------------------------
 
E---7-------7-------7-------7------------------------------------
B-------9-------9-------9-------9--------------------------------
G----------------------------------------------------------------
D----------------------------------------------------------------
A----------------------------------------------------------------
E----------------------------------------------------------------
 
E---9-------9-------8-------8------------------------------------
B-------9-------9-------9----------------------------------------
G----------------------------------------------------------------
D----------------------------------------------------------------
A----------------------------------------------------------------
E----------------------------------------------------------------

     
Добавлено: 19.08.2013
Другие материалы по этой песне:

Страница создана 12.04.2012
http://primanota.ru/john-murphy/in-the-house-in-the-heartbeat-chords.htm
Привет, Гость.
Предлагаем пройти революционный курс по гитаре.
Подарок от PrimaNota.Ru, забирай!