PrimaNota.ru - самый крупный в мире бесплатный архив песенных текстов, аккордов, табулатур и нот


John Murphy - East Hastings Empty London Walkthrough - таба, видео

Регистрация Запомнить меня
Войти через:  Facebook Google Twitter Vk Yandex Mail.ru

John Murphy - East Hastings Empty London Walkthrough - таба, видео

Печатать
Просмотров: 161
Уроки эстрадного вокала в Санкт-Петербурге
East Hastings from 28 days later.
I got the soundtrack on CD but I was annoyed to find that it didn't contain this song.
I'm sorry about any mistakes that I surely will have made. 
http://www.youtube.com/watch?v=Z7LjjmSYTdQ This is the song on Youtube.


Tune 1- Part A
Guitar (Only one guitar throughout tune)
e|----------------------------------------------------------------|
B|----------------------------------------------------------------|
G|10--10--10--10--11--8---------------8---8---10--6---------------|
D|----------------------------------------------------------------|
A|----------------------------------------------------------------|
E|----------------------------------------------------------------|

e|----------------------------------------------------------------|
B|----------------------------------------bu-bd-------------------|
G|6---6---6---8---5---------------5---5---5-6-5---3---------------|
D|----------------------------------------------------------------|
A|----------------------------------------------------------------|
E|----------------------------------------------------------------|

e|----------------------------------------------------------------|
B|----------------------------------------------------------------|
G|10--10--10--11--8---------------8---8---8---10--6---------------|
D|----------------------------------------------------------------|
A|----------------------------------------------------------------|
E|----------------------------------------------------------------|

e|----------------------------------------------------------------|
B|----------------------------------------bu-bd-------------------|
G|6---6---6---8---5---------------5---5---5-6-5---3---------------|
D|----------------------------------------------------------------|
A|----------------------------------------------------------------|
E|----------------------------------------------------------------|

Tune 1- Part B
e|----------------------------------------------------------------|
B|----------------------------------------------------------------|
G|6---6---6---5---5---------------6---6---6---2---2---------------|
D|----------------------------------------------------------------|
A|----------------------------------------------------------------|
E|----------------------------------------------------------------|

e|----------------------------------------------------------------|
B|----------s-----------------------------------------------------|
G|6---6---6---8---8---------------6---6---6---3---3---------------|
D|----------------------------------------------------------------|
A|----------------------------------------------------------------|
E|----------------------------------------------------------------|

e|----------------------------------------------------------------|
B|----------------------------------------------------------------|
G|6---6---6---5---5---------------6---6---6---2---2---------------|
D|----------------------------------------------------------------|
A|----------------------------------------------------------------|
E|----------------------------------------------------------------|

e|----------------------------------------------------------------|
B|----------s-----------------------------------------------------|
G|6---6---6---8---8---------------6---6---6---3---3---------------|
D|----------------------------------------------------------------|
A|----------------------------------------------------------------|
E|----------------------------------------------------------------|

Tune 1- Part C
e|----------------------------------------------------------------|
B|----------------------------------------------------------------|
G|10--10--10--11--8---------------8---8---8---10--6---------------|
D|----------------------------------------------------------------|
A|----------------------------------------------------------------|
E|----------------------------------------------------------------|

e|----------------------------------------------------------------|
B|----------------------------------------bu-bd-------------------|
G|6---6---6---8---5---------------5---5---5-6-5---3---------------|
D|----------------------------------------------------------------|
A|----------------------------------------------------------------|
E|----------------------------------------------------------------|

e|----------------------------------------------------------------|
B|----------------------------------------------------------------|
G|10--10--10--11--8---------------8---8---8---10--6---------------|
D|----------------------------------------------------------------|
A|----------------------------------------------------------------|
E|----------------------------------------------------------------|

e|----------------------------------------------------------------|
B|----------------------------------------bu-bd-------------------|
G|6---6---6---8---5---------------5---5---5-6-5---3---------------|
D|----------------------------------------------------------------|
A|----------------------------------------------------------------|
E|----------------------------------------------------------------|

Tune 2- Part A  *Enter Drums and Bass*
e|----------------------------------------------------------------|
B|-------------bu-----------------------------------------bu-bd---|
G|15--15------151715------10------11------6---------------5-6-5---|
D|----------------------------------------------------------------|
A|----------------------------------------------------------------|
E|----------------------------------------------------------------|

e|----------------------------------------------------------------|
B|----------------------------------------------------------------|
G|------------3----------------*Guitar drops out*-----------------|
D|----------------------------------------------------------------|
A|----------------------------------------------------------------|
E|----------------------------------------------------------------|

*Begins to slowly speed up*
e|----------------------------------------------------------------|
B|----------------------------------------------------------------|
G|----------------------------------------------------------------|
D|----------------------------------------------------------------|
A|----------------------------------------------------------------|
E|----------------------------------------------------------------|

e|----------------------------------------------------------------|
B|----------------------------------------------------------------|
G|----------------------------------------------------------------|
D|----------------------------------------------------------------|
A|----------------------------------------------------------------|
E|----------------------------------------------------------------|

e|----------------------------------------------------------------|
B|----------------------------------------------------------------|
G|----------------------------------------------------------------|
D|----------------------------------------------------------------|
A|----------------------------------------------------------------|
E|----------------------------------------------------------------|

Tune 3- Part A
e|----------------------------------------------------------------|
B|----------------------------------------------------------------|
G|15--17--17--15--15--17--17--15--15--17--17--15--15--13--13--15--|
D|----------------------------------------------------------------|
A|----------------------------------------------------------------|
E|----------------------------------------------------------------|

e|----------------------------------------------------------------|
B|----------------------------------------------------------------|
G|15--17--17--15--15--17--17--15--15--17--17--15--15--13--13--15--|
D|----------------------------------------------------------------|
A|----------------------------------------------------------------|
E|----------------------------------------------------------------|

e|----------------------------------------------------------------|
B|----------------------------------------------------------------|
G|15--17--17--15--15--17--17--15--15--17--17--15--15--13--13--15--|
D|----------------------------------------------------------------|
A|----------------------------------------------------------------|
E|----------------------------------------------------------------|

e|-----------------------------------------------------------------|
B|bu--------bu------bu------bu------bu-----slowly increase bend----|
G|15------15-15---15-15---15-15---15-15---15-15--15-15-15-15-15-15-|
D|-----------------------------------------------------------------|
A|-----------------------------------------------------------------|
E|-----------------------------------------------------------------|

e|----------------------------------------------------------------|
B|bd--------------------------------------------------------------|
G|15--------------------------------------------------------------|
D|----------------------------------------------------------------|
A|----------------------------------------------------------------|
E|----------------------------------------------------------------|

The Guitar tune ends here but it might go on to play some chords; if it does then 
I have no idea what.
The drums, chello(?) carry on playing while speeding up to a finale.
Добавлено: 19.11.2013
Другие материалы по этой песне:
  • Аккорды и текст

Страница создана 19.11.2013
http://primanota.ru/john-murphy/east-hastings-empty-london-walkthrough-chords.htm
Привет, Гость.
Предлагаем пройти революционный курс по гитаре.
Подарок от PrimaNota.Ru, забирай!