PrimaNota.ru - самый крупный в мире бесплатный архив песенных текстов, аккордов, табулатур и нот


John Butler Trio - Johnnys Gone - таба, видео

Регистрация Запомнить меня
Войти через:  Facebook Google Twitter Vk Yandex Mail.ru

John Butler Trio - Johnnys Gone - таба, видео

Печатать
Просмотров: 135
Авторы музыки: John Butler
Авторы текста: John Butler
The John Butler Trio - Johnny's Gone

Tabbed by Sinuso


Capo 5


Intro, Verse 1,2 & 4 (keep on strumming the last chord at the end of the 4th verse 
don't hear no sound")

E|----------------------|
B|----------------------|
G|----------------------|
D|----------------------|
A|--5----7----3----3----|
E|--3----5----1----1----|


Chorus

E|----------------------|
B|----------------------|
G|----------------------|
D|--5----7----3----3----|
A|--5----7----3----3----|
E|--3----5----1----1----|


Verse 3 (the last time, the 2 last chords are played for 2 bars)


    C    G    Am   

E|--0----0----0---------|
B|--1----0h1--1---------|
G|--0----0----2---------|
D|--2----0h2--2---------|
A|--3---------0----3----|
E|-------3---------1----|


Bridge

E|--0----0-0-0----0---0-0----0---0-0---3----|
B|--3----3-3-1----1---1-1----1---1-0h1-1----|
G|--2----0-0-2----0---0-2----0---0-0---0----|
D|--0----0-2-3----2p0-0-2----2p0-0-0h2-2----|
A|--------------------3-0--------3----------|
E|---------------------------------3---3----|

E|--0----0-0-0----0---0-0----0---0-0---3--------------|
B|--3----3-3-1----1---1-1----1---1-0h1-1--------------|
G|--2----0-0-2----0---0-2----0---0-0---0--------------|
D|--0----0-2-3----2p0-0-2----2p0-0-0h2-2--------------|
A|--------------------3-0--------3----------3----3----|
E|---------------------------------3---3----1----1----|


Outro (end on C)

    C  G  Am   

E|--0--0--0-------|
B|--1--0--1-------|
G|--0--0--2-------|
D|--2--0--2-------|
A|--3-----0--3----|
E|-----3-----1----|

There you go. I'm kind of new at writing tabs so I hope it's clear and accurate enough 
for the bridge)...
Check out the video on youtube (http://www.youtube.com/watch?v=uGppDxtrPto) it might 
for the rythm.
Добавлено: 26.07.2012
Другие материалы по этой песне:
  • Аккорды и текст

Страница создана 26.07.2012
http://primanota.ru/john-butler-trio/johnnys-gone-chords.htm
Привет, Гость.
Предлагаем пройти революционный курс по гитаре.
Подарок от PrimaNota.Ru, забирай!