PrimaNota.ru - самый крупный в мире бесплатный архив песенных текстов, аккордов, табулатур и нот


John Butler Trio - Media - таба, видео

Регистрация Запомнить меня
Войти через:  Facebook Google Twitter Vk Yandex Mail.ru

John Butler Trio - Media - таба, видео

Печатать
Просмотров: 151
Авторы музыки: John Butler
Авторы текста: John Butler
this is a great song but this tab is definetly not perfect

capo 2 fret (everything relative to capo)
intro
e------------2--2-2---------------2-|
B---------------3-3---------3-----3-|
G---------2-----2-2---------------2-|
D---------------0-0------0--------0-|
A-----------------------------------|
E--3(play with thumb)-0-------------|

you can play around with that pick pattern but that
is pretty much it.
verse
e-------------2---------------|
B-----------------------------|
G---------2-------------------|
D-------0---------------------|
A-----------------------------|
E--3--------------0----0----0-|

it then starts to get louder and you start to strum these chords
e--2-------2--|
B--3-------3--|
G--2-------2--|
D--0-------0--|
A--0-------0--|
E--3-------0--|
Добавлено: 28.07.2012
Другие материалы по этой песне:
  • Аккорды и текст

Страница создана 16.07.2012
http://primanota.ru/john-butler-trio/media-chords.htm
Привет, Гость.
Предлагаем пройти революционный курс по гитаре.
Подарок от PrimaNota.Ru, забирай!