PrimaNota.ru - самый крупный в мире бесплатный архив песенных текстов, аккордов, табулатур и нот


John Butler Trio - Id Do Anything Soldiers Lament - бас-таба, видео

Регистрация Запомнить меня
Войти через:  Facebook Google Twitter Vk Yandex Mail.ru

John Butler Trio - Id Do Anything Soldiers Lament - бас-таба, видео

Печатать
Просмотров: 60
Уроки эстрадного вокала в Санкт-Петербурге
Авторы музыки: John Butler
Авторы текста: John Butler
-----------------------------------------------------------------------------
               I'd Do Anything (Soldier's Lament) - John Butler Trio
-----------------------------------------------------------------------------

Tabbed by: Country Bass
E-mail: aaron.white8@education.nsw.gov.au

Tuning: Standard

I know this isn't a country song but I couldn't find a tab for it anywhere so for any 
John Butler fans
 here's the bass tab for I'd Do Anything from their 2010 album 'April Uprising'

Listen to song for rhythm

Guitar plays intro

Part 1: Verse

G|-----------------------------|
D|-----11-7--------------------|
A|--9---------------5----------|
E|----------9-9-9-7---5-7-7-7--|

Part 2: Pre-Chorus

G|--------------------------------|
D|-----11-7-----------------------|
A|--9-----------------------------|
E|----------9-9-9-7-7-7-7-7-7-7-7-|

Part 3: Chorus

G|---------------------------------------------|
D|---------------------------------------------|
A|--x-x-x-x-x-7--7-7-7-4-4-4-4-4-4-8-8--8-8-8--|
E|---------------------------------------------|

Part 4: Outro

G|-----------------------------|
D|-----11-7--------------------|
A|--9---------------5----------|
E|----------9-9-9-7---5-7------|

Part 1 x9
Part 2
Part 3 x4
Part 1 x11
Part 2
Part 3 x4
Part 1 x5
Part 4


Hope this is of help



| /  slide up
| \  slide down
| h  hammer-on
| p  pull-off
| ~  vibrato
| +  harmonic
| x  Mute note
=============================================================================
Добавлено: 29.08.2013
Другие материалы по этой песне:
  • Аккорды и текст

Страница создана 29.08.2013
http://primanota.ru/john-butler-trio/id-do-anything-soldiers-lament-chords.htm
Привет, Гость.
Предлагаем пройти революционный курс по гитаре.
Подарок от PrimaNota.Ru, забирай!