PrimaNota.ru - самый крупный в мире бесплатный архив песенных текстов, аккордов, табулатур и нот


John Butler Trio - Losing You - таба, видео

Регистрация Запомнить меня
Войти через:  Facebook Google Twitter Vk Yandex Mail.ru

John Butler Trio - Losing You - таба, видео

Печатать
Просмотров: 171
Авторы музыки: John Butler
Авторы текста: John Butler
John butler trio- Losing you


capo on the 4th


h= slur or hammer on
/= slide

A--------0------0----0----0-----0------0-----0------0-----0-|
B-----------------------------------------------------------|
G-----------------------------------2----2h4-----2----------|
D-----------------0----2----4-------------------------------|
A----------0h2----------------------------------------------|
D-----0------------------------------------------------0----|


A------0--------0-------0-------0------0-----0-------0-----|
B----------------------------------------------------------|
G--2h4-----2-----------------------------------------------|
D-------------------4------2-------0-----------------------|
A----------------------------------------2-------0---------|
D----------------------------------------------------------|


A-----0-------0-----0-----0---------------------0----------|
B----------------------------------------------------------|
G----------------------------------2-----------------------|
D----------------0-----2------2/4------4-----2------0------|
A---------0h2----------------------------------------------|
D---0------------------------------------------------------|

A------0-------0---------0-------0-------0-------0------0-------0--|
B------------------------------------------------------------------|
G---------2h4--------2---------------------------------------------|
D-----------------------------4------2--------0--------------------|
A----------------------------------------------------2------0------|
D---0--------------------------------------------------------------|

A------0--------0-------0-------0-----0-------0-------0-----0------|
B------------------------------------------------------------------|
G---------2h4--------2-------------------2h4------2----------------|
D----------------------------4---------------------------4-----0---|
A------------------------------------------------------------------|
D---0------------------------------0-------------------------------|

i think thats pretty much it.   im proud of that  for a 1st tab haha any way if u see
mistakes please tell me ...just play around with it and u should b right for the rest of
song...thats just the basic rif and i no that john butler doesnt use a capo but it still 
sweet to use it...

ok thanks for looking

Lemo
Добавлено: 15.03.2012
Другие материалы по этой песне:

Страница создана 04.03.2012
http://primanota.ru/john-butler-trio/losing-you-chords.htm
Привет, Гость.
Предлагаем пройти революционный курс по гитаре.
Подарок от PrimaNota.Ru, забирай!