PrimaNota.ru - самый крупный в мире бесплатный архив песенных текстов, аккордов, табулатур и нот


John Butler Trio - Company Sin - бас-таба, видео

Регистрация Запомнить меня
Войти через:  Facebook Google Twitter Vk Yandex Mail.ru

John Butler Trio - Company Sin - бас-таба, видео

Печатать
Просмотров: 133
Авторы музыки: John Butler
Авторы текста: John Butler
Artist:  John Butler Trio
Song:  Company Sin
Tuning:  Standard
Tabbed by:  PitchImperfect
Date:  08.07.07


Intro - Verse

G|------------------------|
D|---5/7------------------|
A|-5-----8--------88-88-8-|
E|------------6-6---------| x11

G|------------------------|
D|---5/7------------------|
A|-5-----8--------88-88---|
E|------------6-6-------5-|


Pre-Chorus

G|------------------------|------------------------|
D|-----------------5---3--|-----------------5---3--|
A|----8----------5--------|----8----------5--------|
E|-6---6----5-3---------5-|-6---6------3---------5-|

G|------------------------|------------------------|
D|-----------------5---3--|-----------------5553b--| If you have a fretless, slide up a quarter tone
A|----8----------5--------|----8-------------------|
E|-6---6----5-3---------5-|-6---6----5-3-----------|


Chorus

G|---------------------------|
D|---5/7---------------------|
A|-5-----8--------1010-108-7-|
E|------------6-6------------| x3

G|---------------------------|
D|---5/7---------------------|
A|-5-----8--------1010-108-5-|
E|------------6-6------------|


Verse

G|------------------------|
D|---5/7------------------|
A|-------8--------88-88-8-|
E|------------6-6---------|

G|------------------------|
D|---5/7------------------|
A|-5-----8--------88-88-8-|
E|------------6-6---------| x6

G|------------------------|
D|---5/7------------------|
A|-5-----8--------88-88---|
E|------------6-6-------5-|


Pre-Chorus

G|------------------------|------------------------|
D|-----------------5---3--|-----------------5---3--|
A|----8----------5--------|----8----------5--------|
E|-6---6----5-3---------5-|-6---6----5-3---------5-|

G|------------------------|------------------------|
D|-----------------5---3--|-----------------5553b--| If you have a fretless, slide up a quarter tone
A|----8----------5--------|----8-------------------|
E|-6---6----5-3---------5-|-6---6----5-3-----------|


Chorus - Instrumental

G|---------------------------|
D|---5/7---------------------|
A|-5-----8--------1010-108-7-|
E|------------6-6------------| x7

G|------------------------|
D|---5/7------------------|
A|-5-----8--------88-8----|
E|------------6-6-----5-5-|

G|------------------------|------------------------|
D|-----------------5---3--|-----8-----------5---3--|
A|----8----------5--------|----8----------5--------|
E|-6---6----5-3---------5-|-6--------5-3---------5-|

G|------------------------|------------------------|
D|-----------------5---3--|-----8-----------5-5-3b-| If you have a fretless, slide up a quarter tone
A|----8----------5--------|----8----------5--------|
E|-6---6----5-3---------5-|-6--------5-3-----------|

G|------------------------|------------------------|
D|------------------------|------------------------|
A|-5----------------------|------------------------|
E|------------------------|------------------------|


Verse

G|------------------------|
D|---5/7------------------|
A|-5-----8--------88-88-8-|
E|------------6-6---------| x4


Chorus

G|---------------------------|
D|---5/7---------------------|
A|-5-----8--------1010-108-7-|
E|------------6-6------------| x4


Outro

G|------------------------|------------------------|
D|---5/7------------------|---5/7------------------|
A|-5-----8--------88-88-8-|-5-----8--------88-88-7-|
E|------------6-6---------|------------6-6---------|

G|------------------------|------------------------|
D|---5/7------------------|---5/7------------------|
A|-5-----8--------88-88-8-|-5-----8--------88-87-5-|
E|------------6-6---------|------------6-6---------|
Добавлено: 27.04.2012
Другие материалы по этой песне:

Страница создана 27.04.2012
http://primanota.ru/john-butler-trio/company-sin-chords.htm
Привет, Гость.
Предлагаем пройти революционный курс по гитаре.
Подарок от PrimaNota.Ru, забирай!