PrimaNota.ru - самый крупный в мире бесплатный архив песенных текстов, аккордов, табулатур и нот


John Butler Trio - Dont Wanna See Your Face - таба, видео

Регистрация Запомнить меня
Войти через:  Facebook Google Twitter Vk Yandex Mail.ru

John Butler Trio - Dont Wanna See Your Face - таба, видео

Печатать
Просмотров: 259
Авторы музыки: John Butler
Авторы текста: John Butler
Don't Wanna See Your Face
John Butler Trio

Tabbed by Spagwar 

First go, solo is approximate. Ruddy awesome little riff!

Tuning is open C = CGCGCE

Intro
e|----------------------------------------------------------------|
B|----0------0-------0-----0---9-------0------0-------0------0--3-|
G|-8h9-0--8h9-0---8h9-0--8h9-0-8----8h9-0--8h9-0---8h9-0--8h9-0-2-|
D|---------------0--------------------------------0---------------|
A|----------------------------------------------------------------|
E|----------------------------------------------------------------|

Verse 1
e|----------------------------------------------------------------|
B|----0------0-------0------0---------0------0-------0------0---9-|
G|-8h9-0--8h9-0---8h9-0--8h9-0-----8h9-0--8h9-0---8h9-0--8h9-0--8-|
D|---------------0-------------------------------0----------------|
A|----------------------------------------------------------------|
E|----------------------------------------------------------------|

e|----------------------------------------------------------------|
B|----0------0-------0------0--3------0------0-------0------0---0-|
G|-8h9-0--8h9-0---8h9-0--8h9-0-2---8h9-0--8h9-0---8h9-0--8h9-0--0-|
D|---------------0-------------------------------0--------------0-|
A|----------------------------------------------------------------|
E|----------------------------------------------------------------|

Chorus 1
e|----------------------------------------------------------------|
B|------------------------0------0-------0------0--0--------------|
G|---------------------8h9-0--8h9-0---8h9-0--8h9-0-0--------------|
D|--9-9-9-7/9-9-9-3------------------0-------------0--------------|
A|--x-x-x-x-x-x-x-x-----------------------------------------------|
E|--9-9-9-7/9-9-9-3-----------------------------------------------|

e|----------------------------------------------------------------|
B|------------------------0------0--0-----------------------------|
G|---------------------8h9-0--8h9-0-0--pause----------------------|
D|--9-9-9-7/9-9-9-3-----------------0-----------------------------|
A|--x-x-x-x-x-x-x-x-----------------------------------------------|
E|--9-9-9-7/9-9-9-3-----------------------------------------------|

Verse 2
e|----------------------------------------------------------------|
B|----0------0-------0------0---------0------0-------0------0---3-|
G|-8h9-0--8h9-0---8h9-0--8h9-0-----8h9-0--8h9-0---8h9-0--8h9-0--2-|
D|---------------0-------------------------------0----------------|
A|----------------------------------------------------------------|
E|----------------------------------------------------------------|

e|----------------------------------------------------------------|
B|----0------0-------0------0-----------0------0-------0------0-3-|
G|-8h9-0--8h9-0---8h9-0--8h9-0-----8h9-0--8h9-0---8h9-0--8h9-0--2-|
D|---------------0--------------------------------0-------------0-|
A|----------------------------------------------------------------|
E|----------------------------------------------------------------|

Chorus 2
e|----------------------------------------------------------------|
B|------------------------0------0-------0------0--0--------------|
G|---------------------8h9-0--8h9-0---8h9-0--8h9-0-0--------------|
D|--9-9-9-7/9-9-9-3------------------0-------------0--------------|
A|--x-x-x-x-x-x-x-x-----------------------------------------------|
E|--9-9-9-7/9-9-9-3-----------------------------------------------|

e|----------------------------------------------------------------|
B|------------------------0------0--0--------------9--------------|
G|---------------------8h9-0--8h9-0-0---bass fill--8--------------|
D|--9-9-9-7/9-9-9-3-----------------0-----------------------------|
A|--x-x-x-x-x-x-x-x-----------------------------------------------|
E|--9-9-9-7/9-9-9-3-----------------------------------------------|

Solo (roughly)
e|----------------------------------------------------------------|
B|----------------------------------------------------------------|
G|-0-0-0----------------------------------------------------------|
D|-0-0-0-4----repeat----------------------------------------------|
A|-0-0-0-4--------------------------------------------------------|
E|-0-0-0-4--------------------------------------------------------|

e|----------------------------------------------------------------|
B|----------------------------------------------------------------|
G|------------------------------------0h2-2-5-2-5-2-5-------------|
D|-2b2-0-2p0-----------------2h4p2p0h2----------------------------|
A|----------5-0-5-5-2-5-2-5/7-------------------------------------|
E|----------------------------------------------------------------|

e|---------------------------3------------------------------------|
B|----0---0---0---0---0---0/4-4p2p0-----2p0-0---------------------|
G|-0h2-0h2-0h2-0h2-0h2-0h2---------2p0h2---0----------------------|
D|----------------------------------------------------------------|
A|----------------------------------------------------------------|
E|----------------------------------------------------------------|

e|--------------------------3------8------------------------------|
B|---7---7---7-7---0---0-2/4----2/4-------------------------------|
G|-/9-8h9-8h9-9-0h2-0h2------0h2----------------------------------|
D|----------------------------------------------------------------|
A|----------------------------------------------------------------|
E|----------------------------------------------------------------|

e|----8----10----12--12--12-12------12----10---8------------------|
B|----------------------------------------------------------------|
G|-7/9-9/10-10/12--12--12------10/12-12\10-10\9-------------------|
D|----------------------------------------------------------------|
A|----------------------------------------------------------------|
E|----------------------------------------------------------------|



Bridge
e|---------------------------------------------------------------|
B|---------------------------------------------------------------|
G|-0--7--5---5--9-7----------------------------------------------|
D|-0--7--5---5--9-7----------------------------------------------|
A|-0--7--5---5--9-7----------------------------------------------|
E|-0--7--5---5--9-7----------------------------------------------|

Then, played over bridge riff
e|---------------------------------------------------------------|
B|----0-----0------0-0---0-0--------0-0---0----0-----------------|
G|-8h9-0-8h9-0--7h9-7-7h9-0-77---4h5-5-4h5-0-00-x2---------------|
D|---------------------------------------------------------------|
A|---------------------------------------------------------------|
E|---------------------------------------------------------------|

Outro
e|-------------------------------------------------------------------|
B|----0------0-------0------0--9-------0------0-------0------0-------|
G|-8h9-0--8h9-0---8h9-0--8h9-0-8----8h9-0--8h9-0---8h9-0--8h9-0-8-8--|
D|---------------0--------------------------------0---------------9--|
A|----------------------------------------------------------------x--|
E|----------------------------------------------------------------9--|

e|-------------------------------11----------------------------------|
B|----0------0-------0------0----9-------0------0---10---------------|
G|-8h9-0--8h9-0---8h9-0--8h9-0-8-8----8h9-0--8h9-0-99----------------|
D|---------------0---------------------------------------------------|
A|-------------------------------------------------------------------|
E|-------------------------------------------------------------------|

e|-------------------------------------------------------------------|
B|-3\2p0---------------------0---------------------------------------|
G|------2p0-----------0------0---------------------------------------|
D|---------2/4\2p0-2/4-4p2p0-0---------------------------------------|
A|---------------------------0---------------------------------------|
E|-------------------------------------------------------------------|


| /  slide up
| \  slide down
| h  hammer-on
| p  pull-off
| ~  vibrato
| +  harmonic
| x  Mute note
Добавлено: 14.06.2012
Другие материалы по этой песне:

Страница создана 05.06.2012
http://primanota.ru/john-butler-trio/dont-wanna-see-your-face-chords.htm
Привет, Гость.
Предлагаем пройти революционный курс по гитаре.
Подарок от PrimaNota.Ru, забирай!