PrimaNota.ru - самый крупный в мире бесплатный архив песенных текстов, аккордов, табулатур и нот


John Butler Trio - All Night Long - таба, видео

Регистрация Запомнить меня
Войти через:  Facebook Google Twitter Vk Yandex Mail.ru

John Butler Trio - All Night Long - таба, видео

Печатать
Просмотров: 88
This is a tab i have put together, anything you want to add just create a new tab. Its a 
funky song for intermediate players. Open C tuning.
E|--0-1-2-3-2-3-2-3-0--------------------------------------------------------|
C|-0------------------2-0---0--4-3-4-3-4-3-4-0---0---------------------------|
G|------------------------2--------------------2-----------------------------|
C|---------------------------------------------------------------------------|
G|---------------------------------------------------------------------------|
C|---------------------------------------------------------------------------|

e|----5----5\4/5\4/5\4/5\4/5---/12--8----5\4----0-------|
C|----5--------------------------------------2/3----0---|
G|------------------------------------------------2---0-|
C|--/5--------------------------------------------------|
G|--/5--------------------------------------------------|
C|--/5--------------------------------------------------|

That whole bit is then repeated for the first verse.

For this bit strum the 7th fret and open string chords in time with the music, with slide:


e|-----------------------------------------|
C|---/7---------4-------0------------------|
G|---/7---------4-------0------------------|
C|---/7---------4-------0------------------|
G|---/7---------4-------0------------------|
C|---/7---------4-------0------------------|

Then for the second verse:
(no slide here)
e|----------------------3-----------------------3-------|
C|----4-3-4-3-4-3-4-3-4---0---4-3-4-3-4-3-4-3-4---0-----|
G|------------------------------------------------------|
C|------------------------------------------------------|
G|------------------------------------------------------|
C|--0-----------------------0---------------------------|

(slide here)
e|----5----5\4/5\4/5\4/5\4/5---/12--8----5\4----0-------|
C|----5--------------------------------------2/3----0---|
G|------------------------------------------------2---0-|
C|--/5--------------------------------------------------|
G|--/5--------------------------------------------------|
C|--/5--------------------------------------------------|


e|-----------------------------------------|
C|---/7---------4-------0------------------|
G|---/7---------4-------0------------------|
C|---/7---------4-------0------------------|
G|---/7---------4-------0------------------|
C|---/7---------4-------0------------------|
Добавлено: 14.09.2013
Другие материалы по этой песне:
  • Аккорды и текст

Страница создана 14.09.2013
http://primanota.ru/john-butler-trio/all-night-long-chords.htm
Привет, Гость.
Предлагаем пройти революционный курс по гитаре.
Подарок от PrimaNota.Ru, забирай!