PrimaNota.ru - самый крупный в мире бесплатный архив песенных текстов, аккордов, табулатур и нот


John Butler Trio - Zebre - таба, видео

Регистрация Запомнить меня
Войти через:  Facebook Google Twitter Vk Yandex Mail.ru

John Butler Trio - Zebre - таба, видео

Печатать
Просмотров: 127
Уроки эстрадного вокала в Санкт-Петербурге
Zebra - John Butler Trio

from the album Sunrise over Sea (2003)


Intro: (this is played throughout the whole song)

e|-------------------------------------------------------------------------|
B|-------------------------------------------------------------------------|
G|--2h4--4--4--2h4---------------------------------------------------------|
D|------------------2h4--2h4--0--0--2--0--2-------3/2--0-------------------|
A|-------------------------------------------0h2----------0----------------|
E|-------------------------------------------------------------------------|

(then play this)
e|-------------------------------------------------------------------------|
B|----------3--2--0--------------------------------------------------------|
G|--2h4--4-----------2h4--2h4--2--2--2--4--2--4--2--4--2--4--2--4----------|
D|-------------------------------------------------------------------------|
A|-------------------------------------------------------------------------|
E|-------------------------------------------------------------------------|


(play the below a few more times)
e|-------------------------------------------------------------------------|
B|-------------------------------------------------------------------------|
G|--2h4--4--4--2h4---------------------------------------------------------|
D|------------------2h4--2h4--0--0--2--0--2-------3/2--0-------------------|
A|-------------------------------------------0h2----------0----------------|
E|-------------------------------------------------------------------------|

(then this)
e|-------------------------------------------------------------------------|
B|----------3--2--0--------------------------------------------------------|
G|--2h4--4-----------------------------------------------------------------|
D|------------------2h4--2h4--0--0--2--0--2-------3/2--0-------------------|
A|-------------------------------------------0h2----------0----------------|
E|-------------------------------------------------------------------------|

(Guitar 1 can play the above riff while Guitar 2 can play the progression of chords below)

    B          F#              D           E
e|-------------------------------------------------------------------------|
B|-------------------------------------------------------------------------|
G|--------------11-11-11-x-x---7-7-7-x-x---9-9-9-x-x-----------------------|
D|--9-9-9-x-x---11-11-11-x-x---7-7-7-x-x---9-9-9-x-x-----------------------|
A|--9-9-9-x-x---9--9--9--x-x---5-5-5-x-x---7-7-7-x-x-----------------------|
E|--7-7-7-x-x--------------------------------------------------------------|

I can be loud man, I can be silent.
I could be young man or I could be old. 
I can be a gentleman or I can be violent. 
I could turn hot man or I can be cold. 
I could be just like the calm before the storm boy,
Waiting for all hell yeah to break loose. 
I could be innocent or I could be guilty.
Doesn
Добавлено: 30.10.2013
Другие материалы по этой песне:
  • Аккорды и текст

Страница создана 30.10.2013
http://primanota.ru/john-butler-trio/zebre-chords.htm
Привет, Гость.
Предлагаем пройти революционный курс по гитаре.
Подарок от PrimaNota.Ru, забирай!