PrimaNota.ru - самый крупный в мире бесплатный архив песенных текстов, аккордов, табулатур и нот


John 5 - Bella Kiss - таба, видео

Регистрация Запомнить меня
Войти через:  Facebook Google Twitter Vk Yandex Mail.ru

John 5 - Bella Kiss - таба, видео

Печатать
Просмотров: 138
-------------------------------------------------------------------------------
                             "Bella Kiss" --- John 5
-------------------------------------------------------------------------------

Tabbed by: [travis]

John 5 is such a kick ass guitarist, so I decided to put this
song up on this site. I'll try to get, with any luck, his
other songs on here.

Tuning: Open E (E B E G# B E) low to high

Key: E Major (E F# G# A B C# D# E)


Legend: 

x = muffled string, or muted string.
T = tap with right hand finger
15(3) = tapped harmonic
b = bend
pb = pre bend
1 = whole step bend
.5 = half step bend
()h = hammer on from no where
()p = pull off from no where
()h1p0h1p0 = one whole phrase with only one tap
____ = hold bend
[] = bring bent note back to normal, or note barely heard


**Play this whole song with your fingers. 
**Some parts can be played with a pick, like the bend parts.



E |----------------------------------------------|
B |----------------------------------------------|
G#|--x----------x-----------x-----------x--------| x1
E |--x----------x-----------x-----------x--------|
B |-------x-----------x-----------x-----------x--|
E |-------x-----------x-----------x-----------x--|


    T        T        T        T        T        T        T        T        T
E |---------------------------------------------------------------------------------|
B |---------------------------------------------------------------------------------|
G#|----------------------------------------------12(0)------------------------------|
E |-12(0)----12(0)----12(0)-------------12(0)----12(0)----12(0)----12(0)----12(0)---|
B |-12(0)h5--12(0)h5--12(0)h5--12(0)h2--12(0)----12(0)h5--12(0)h5--12(0)h5--12(0)h4-|
E |-12(0)----12(0)----12(0)----12(0)----12(0)h2-----------12(0)----12(0)----12(0)---|


    T        T        T        T        T        T        T        T        T
E |-------------------------------------------------------------------------------------|
B |-------------------------------------------------------------------------------------|
G#|-12(0)-------------------------------------------------------------------12(0)-------|
E |-12(0)----12(0)----12(0)----12(0)----12(0)h2--12(0)h7--12(0)----12(0)----12(0)-------|
B |-12(0)h5--12(0)h5--12(0)h5--12(0)h5--12(0)----12(0)----12(0)h5--12(0)h5--12(0)h4p0h4-|
E |----------12(0)----12(0)----------------------12(0)----12(0)----12(0)----------------|


    T        T        T        T        T        T        T        T        T
E |----------------------------------------------------------------12(0)------------|
B |----------------------------------------------------------------12(0)------------|
G#|-12(0)----12(0)----12(0)----12(0)----------------------12(0)----12(0)------------|
E |-12(0)----12(0)----12(0)----12(0)----------------------12(0)----12(0)------------|
B |-12(0)h5--12(0)h5--12(0)h5--12(0)h2--12(0)----12(0)h5--12(0)h5--12(0)h5--12(0)h5-|
E |-------------------------------------12(0)h2--12(0)----------------------12(0)---|


    T        T        T        T        T        T        T        T
E |------------------------------------------------------------------------------|
B |------------------------------------------------------------------------------|
G#|-12(0)-------------------------------------------------12(0)------------------|
E |-12(0)----12(0)----12(0)----12(0)-------------12(0)----12(0)------------------|
B |-12(0)h5--12(0)h5--12(0)h5--12(0)h2--12(0)----12(0)h5--12(0)h5--19(7)p5p0h5h7-|
E |----------12(0)----12(0)-------------12(0)h2--12(0)---------------------------|


    T              T        T     T         T     T    T    T    T    T    T    T    T
E |-----------------------------------------------12p0------12p0------12p0------12p0------|
B |----------------------------------------------------12p0------12p0------12p0------12p0-|
G#|----------------12(0)------------------------------------------------------------------|
E |----------------12(0)h5--7(5)--12(5)-----12(0)-----------------------------------------|
B |-19(7)p5p0h5h7--12(0)h5--7(5)--12(5)-----12(0)-----------------------------------------|
E |----------------12(0)h5--7(5)--12(5)-----12(0)-----------------------------------------|


    T        T     T         T       T    T    T    T    T    T    T    T
E |--------------------------12(0)---12p0------12p0------12p0------12p0------|
B |--------------------------12(0)--------12p0------12p0------12p0------12p0-|
G#|--------------------------12(0)-------------------------------------------|
E |-12(0)h5--7(5)--12(5)-----------------------------------------------------|
B |-12(0)h5--7(5)--12(5)-----------------------------------------------------|
E |-12(0)h5--7(5)--12(5)-----------------------------------------------------|


         .5_________        1_________                       .5__________
E |-----------------------------0----------------------------------------------|
B |-----------0----------------------------------------------------0-----------|
G#|-------------------------3b----3---(3)--------------------------------------|
E |-----4b------4---(4)--------------------4-----------0-----4b------4---(4)---|
B |-0--------------------5--------------------5------------------------------5-|
E |-0--------------------------------------------0h2h4----0------0-------------|

     1_________            1___       .5_______          1________
E |------0---------------------------------------------------0--------------------|
B |-----------------------5b---(5)--------0---------------------------------------|
G#|-3b-----3---(3)--------------------------------------3b-----3--(3)-------------|
E |-----------------4-----------------4b----4--(4)--------------------4---------0-|
B |--------------------5----------------------------5-------------------5---------|
E |------0----------------0---------0-------0-----------------------------0h2h4---|

        1____________                              .5______
E |-0----------------------------------------------------------------|
B |-----------0------------------------0----------0------------------|
G#|-----------------------------0h2h3-----0h5h7--(7)b------(7)-------|
E |----4b--------4---(4)---------------------------------------------|
B |--------------5--------5------------------------------------------|
E |-0------0-----------------0---------------------------------------|


    T        T        T        T        T        T        T        T        T
E |-------------------------------------------------------------------------7(0)---|
B |-------------------------------------------------------------------------7(0)---|
G#|-12(0)----12(0)----12(0)----------------------12(0)----12(0)-------------7(0)---|
E |-12(0)----12(0)----12(0)----12(0)----12(0)----12(0)----12(0)----12(0)----7(0)---|
B |-12(0)h5--12(0)h5--12(0)h5--12(0)h2--12(0)----12(0)h5--12(0)h5--12(0)h5------h5-|
E |-------------------------------------12(0)h2------------------------------------|


    T        T        T        T        T        T        T        T       T
E |-12(0)----------------------------------------------------------7(0)----7(0)----|
B |-12(0)----------------------------------------------------------7(0)----7(0)----|
G#|-12(0)----12(0)----12(0)----------------------12(0)-------------7(0)----7(0)----|
E |----------12(0)----12(0)-------------12(0)h2--12(0)----12(0)--------------------|
B |------h5--12(0)h5--12(0)h5--12(0)h2--12(0)----12(0)h5--12(0)h5------h5-------h5-|
E |----------------------------12(0)----------------------12(0)--------------------|


    T        T        T        T        T        T        T        T       T       T
E |-12(0)-------------------------------------------------12(0)---------------------------|
B |-12(0)-------------------------------------------------12(0)---------------------------|
G#|-12(0)----12(0)----12(0)----12(0)----12(0)-------------12(0)---------------------------|
E |----------12(0)----12(0)----12(0)----12(0)----12(0)----12(0)---------------------------|
B |------h5--12(0)h5--12(0)h5--12(0)h2--12(0)----12(0)h5--12(0)h5--7(5)h5--7(5)h5--7(5)h5-|
E |-------------------12(0)----12(0)----12(0)h2--12(0)------------------------------------|


    T        T        T        T        T        T        T        T              T
E |---------------------------------------------------------------------------------------------|
B |---------------------------------------------------------------------------------------------|
G#|-12(0)----------------------12(0)------------------------------------------------------------|
E |-12(0)----12(0)-------------12(0)----12(0)----12(0)----12(0)---------------------------------|
B |-12(0)h5--12(0)h5--12(0)h5--12(0)h2--12(0)----12(0)h5--12(0)h5--19(7)p5p0h5h7--19(7)p5p0h5h7-|
E |----------12(0)----12(0)-------------12(0)h2--12(0)----12(0)---------------------------------|


    T        T      T         T           
E |---------------------------12(0)-------------------------------|
B |---------------------------12(0)-------------------------------|
G#|---------------------------12(0)--------h7h8p7p0-----h7h8p7p0--|
E |-0(12)h5--17(5)--12(5)-----------------------------------------|
B |-0----h5--17(5)--12(5)---------------------------h5------------|
E |-0----h5--17(5)--12(5)---------------h5----------h5------------|


    T        T      T         T
E |---------------------------12(0)-------------------------------|
B |---------------------------12(0)-------------------------------|
G#|---------------------------12(0)--------h7h8p7p0------h7h8p7p0-|
E |-0(12)h5--17(5)--12(5)-----------------------------------------|
B |-0(12)h5--17(5)--12(5)--------------h5-------------------------|
E |-0----h5--17(5)--12(5)--------------h5------------h5-----------|


       .5_________         1_________                      .5________
E |----------------------------0-------------------------------------------|
B |---------0--------------------------------------------------0-----------|
G#|-----------------------3b-----3---(3)-----------------------------------|
E |----4b-----4---(4)--------------------4-----------0-----4b----4---(4)---|
B |-0------------------5--------------------5----------------------------5-|
E |-0------------------------------------------0h2h4----0-------------0----|


     1_____________           1___       .5_________        1________
E |----------0-------------------------------------------------0---------|
B |--------------------------5b---(5)---------0--------------------------|
G#|-3b---------3---(3)-------------------------------------3b----3---(3)-|
E |---------------------4----------------4b-----4---(4)------------------|
B |------------------------5----------------------------5----------------|
E |-----------------------------------0--------------0-----------0-------|

                      .5_________                              .5______
E |------------------------------------------------------------------------|
B |-----------------------0------------------------0----------0------------|
G#|-----------------------------------------0h2h3-----0h5h7--(7)b------(7)-|
E |-4-----------0-----4b-----4---(4)------------------0--------------------|
B |----5------------------------------5------------------------------------|
E |-0-----0h2h4----0---------------------0---------0----------0------------|


Please comment it and rate it.
[travis]

Добавлено: 22.04.2012
Другие материалы по этой песне:

Страница создана 15.04.2012
http://primanota.ru/john-5/bella-kiss-chords.htm
Привет, Гость.
Предлагаем пройти революционный курс по гитаре.
Подарок от PrimaNota.Ru, забирай!