PrimaNota.ru - самый крупный в мире бесплатный архив песенных текстов, аккордов, табулатур и нот


Иоганн Пахельбель - Canon In D Major - таба, бас-таба, видео

Регистрация Запомнить меня
Войти через:  Facebook Google Twitter Vk Yandex Mail.ru

Иоганн Пахельбель - Canon In D Major - таба, бас-таба, видео

Печатать
Просмотров: 1265
Уроки эстрадного вокала в Санкт-Петербурге
Canon in D major
Johann Pachelbel
Guitar Tablature
======================
by: T. A. Wiebe

Standard Tuning: EADGBe
4/4

MELODY:
    D   A   Bm  F#m G   D   G   A  
e |-----------2-5------------------|
B |-3---2-2-3-----------------3-3--|
G |---------4-----2-4-0-2-2-0-4----|
D |-----------------5---4----------|
A |--------------------------------|
E |--------------------------------|

      D       A     Bm    F#m   G       D        G     A
e |---------------------2-5-5-7-3-2-0-3-2-0---------------|
B |-2-3-2-3-------2-3-3----------------------3-2-0---3-3--|
G |-----------2-2----------------------------------2-4----|
D |---------4---------------------------------------------|
A |-------------------------------------------------------|
E |-------------------------------------------------------|

      D       A     Bm    F#m   G       D        G       A
e |---------------------2-5-5-7-3-2-0-3-2-0-----------------------|
B |-2-3-2-3-------2-3-3---------------2------3-2-0-----0---0------|
G |-----------2-2------------------------------2---2-0---2---2-0--|
D |---------4------------------------------------------4----------|
A |---------------------------------------------------------------|
E |---------------------------------------------------------------|

    D     A       Bm      F#m     G       D       G       A
e |-------------------------0---0-----0-3-2-0-----3-5-3-2-0-7-5-3--|
B |-----------------3-2-0-2---3-2-3-0---2-----3-2------------------|
G |-----0-2---2-0---4----------------------------------------------|
D |-4-4-----2-----4------------------------------------------------|
A |----------------------------------------------------------------|
E |----------------------------------------------------------------|

    D       A       Bm      F#m     G       D       G       A
e |-2---------0-2-0--------------------------------------------------|
B |-----------------3-------------------2-0-----------------2--------|
G |-----------------------4-----------4---------------4-2-4----------|
D |---4-5-4-2---------4-0-------------------4------------------------|
A |-------------------------4-0---0-2---------0---0-2---------4-2-4--|
E |-----------------------------3---------------3--------------------|

    D    A       Bm   F#m     G   D   G       A
e |----2-2-3-2-0--------0--------------------------|
B |--------------3--3-3---3-2-0---3---3-1-0-1------|
G |---------------------------0---2-----------2-2--|
D |-4----------------------------------------------|
A |------------------------------------------------|
E |------------------------------------------------|

    D    A       Bm   F#m     G       D   G     A
e |----5-5-7-5-3-2--2-2-3-2-0----------------------|
B |---------------------------3-1-0-1-3---3-1-3-2--|
G |-2----------------------------------------------|
D |-4---------------------------------4------------|
A |------------------------------------------------|
E |------------------------------------------------|

      D    A       Bm   F#m     G       D   G       A
e |------5-5-7-5-3-2--2-2-3-2-0------------------------|
B |-2-3-------------------------3-1-0-1-3---3-1-3-1-2--|
G |-----------------------------------------0---4---2--|
D |----------------------------------------------------|
A |----------------------------------------------------|
E |----------------------------------------------------|

      D    A       Bm   F#m     G       D   G     A
e |------5-5-7-5-3-2--2-2-3-2-0----------------------|
B |-2-3-------------------------3-1-0-1-3---0-3-5-2--|
G |-2------------------------------------------------|
D |--------------------------------------------------|
A |--------------------------------------------------|
E |--------------------------------------------------|

      D   A   Bm  F#m G   D   G   A   D
e |-----------------------------------2------|
B |-2-3-----------------3-3------------------|
G |---------2-----------------4-4---2-2------|
D |-----------4-----4-0-----4-2---2----------|
A |-----0-0----------------------------------|
E |-------------2-2--------------------------|



Добавлено: 05.05.2012
Другие материалы по этой песне:

Страница создана 08.03.2012
http://primanota.ru/johann-pachelbel/canon-in-d-major-chords.htm
Привет, Гость.
Предлагаем пройти революционный курс по гитаре.
Подарок от PrimaNota.Ru, забирай!