PrimaNota.ru - самый крупный в мире бесплатный архив песенных текстов, аккордов, табулатур и нот


Joe Satriani - The Mystical Potato Head Grove Thing - аккорды и текст, видео

Регистрация Запомнить меня
Войти через:  Facebook Google Twitter Vk Yandex Mail.ru

Joe Satriani - The Mystical Potato Head Grove Thing - аккорды и текст, видео

Печатать
Просмотров: 94
Уроки эстрадного вокала в Санкт-Петербурге
The Mystical Potato Head Grove Thing
Joe Satriani
Intro
Q=176
4/4
Gtr I
PM----| PM----|
E S S E E +E E Q W E S S E E +E E Q W
||------------------------|----------|-----------------------|-------||
||o-----------------------|----------|-----------------------|------o||
||------------------------|----------|-----------------------|-------||
||----------11-(11)-12----|----------|---------12-(12)-11----|-------||
||o----------7--(7)--7----|----------|----------7--(7)--7----|------o||
||--0-0-0-0---------------|----------|-0-0-0-0---------------|-------||
 

PM----|
E S S E E +E E Q E E E E E +E E E
|-----------------------|---------------------|
|-----------------------|---------------------|
|-----------------------|---------------------|
|---------11-(11)-12----|---------------------|
|----------7--(7)--7----|---------------------|
|-0-0-0-0---------------|---0-3-0-5b6r(5)-3p0-|
|-Rhy Fig 1

PM----| ~
E S S E E +E E Q E E E E E E Q
|-----------------------|------------------|
|-----------------------|------------------|
|-----------------------|------------------|
|---------12-(12)-11----|------------------|
|----------7--(7)--7----|-------------5----|
|-0-0-0-0---------------|---0-3-0-6h7------|


PM----|
E S S E E +E E Q E E E E E +E E E
|-----------------------|---------------------|
|-----------------------|---------------------|
|-----------------------|---------------------|
|---------11-(11)-12----|---------------------|
|----------7--(7)--7----|---------------------|
|-0-0-0-0---------------|---0-3-0-5b6r(5)-3p0-|


PM----|
E S S E E +E E Q E E E E E E E E
|-----------------------|-----------0-------|
|-----------------------|-------------------|
|-----------------------|-------2-3---3s2---|
|---------12-(12)-11----|-------------------|
|----------7--(7)--7----|---2-3-------------|
|-0-0-0-0---------------|-------------------|
end Rhy Fig 1-|

PM----|
E S S E E +E E Q E E E E E +E E E
|-----------------------|---------------------|
|-----------------------|---------------------|
|-----------------------|---------------------|
|---------11-(11)-12----|---------------------|
|----------7--(7)--7----|---------------------|
|-0-0-0-0---------------|---0-3-0-5b6r(5)-3p0-|


PM----| ~~~
E S S E E +E E Q E E E E E E Q
|-----------------------|----------------------|
|-----------------------|----------------------|
|-----------------------|----------------------|
|---------12-(12)-11----|----------------------|
|----------7--(7)--7----|----------------------|
|-0-0-0-0---------------|---0-3-0-6b7-7-6b7----|



PM----|
E S S E E +E E Q E E E E E +E E E
|-----------------------|---------------------|
|-----------------------|---------------------|
|-----------------------|---------------------|
|---------11-(11)-12----|---------------------|
|----------7--(7)--7----|---------------------|
|-0-0-0-0---------------|---0-3-0-5b6r(5)-3p0-|


Gtr II
\7___/
H Q E a +E W
|------------------------------|------------------||
|------------------------------|------------------||
|----------------------0---(0)-|-4----------------||
|------------------------------|------------------||
|------------------------------|------------------||
|------------------------------|------------------||
| Gtr I
| PM----|
| E S S E E +E E Q E E E E E E E E
|------------------------------|-----------0------||
|------------------------------|------------------||
|------------------------------|-------2-3---3----||
|---------12-(12)-11-----------|------------------||
|----------7--(7)--7-----------|---2-3---------3--||
|-0-0-0-0----------------------|------------------||


~~~~~~~~~~~~~~~~~~~~~~~~~~
H. +Q +W
|--------------------|-------------------|
|--------------------|-------------------|
|-4------------(4)---|-(4)---------------|
|--------------------|-------------------|
|--------------------|-------------------|
|--------------------|-------------------|
|
| PM-------------------------|
| E E E E E E E E E E E E E E E E
|--------------------|-----------0-------|
|--------------------|--4--4-------0h1---|
|------4-----4-------|-----------------2-|
|----4-----4-------4-|-------------------|
|-2------3------2----|-------2-0---------|
|--------------------|-------------------|
|-Rhy Fig 2 end Rhy Fig 2-|

w/Rhy Fig 2 x2
~~~~~~~~~~~~~~~~~~~~~~~~~
+W +Q. E E E E E
|-------------------|--------------------|
|-------------------|---------/5-4-------|
|-(4)---------------|-(4)----------5-4---|
|-------------------|------------------5-|
|-------------------|--------------------|
|-------------------|--------------------|


~~~
Q +E +E +E +E +Q +W
|-------------------------------|-------------------|
|-------------------------------|-------------------|
|-------------------------------|-------------------|
|-4---(4)b5r(4)-(4)-(4)b5r(4)---|-(4)---------------|
|-------------------------------|-------------------|
|-------------------------------|-------------------|


\7
Q. E +E E Q +H +E +Q.
|-------------------|-----------------------||
|-------------------|-----------------------||
|-------------------|-----------------------||
|-------------------|-----------------------||
|-\2-----3-(3)-3-2--|-(2)-----(2)-(2)-------||
|-------------------|-----------------------||
|
| q E e +E E Q +H.. +E
|-------------------|-----------------------||
|-------------------|-----------------------||
|--4---4-5-(5)-5-4--|-(4)--------------(4)/-||
|--4---4-5-(5)-5-4--|-(4)--------------(4)/-||
|--2---2-3-(3)-3-2--|-(2)--------------(2)/-||
|-------------------|-----------------------||


PM--| PM----| PM----------|
E S S E E E E E E a E S S +S S E a Q Q
|-------------------|------------------------------|
|-------------------|------------------------------|
|---------9---------|------------------------------|
|-9-------9---------|-10s12---11-(11)---9-9s11--9--|
|-7-----------------|--9s10-9---------7---7s=9--7--|
|---0-0-0---0-0-0-0-|------------------------------|
|-Rhy Fig 3

W E E E E E Q E
|-------------------|-----------------------|
|-------------------|--------------------|
|-------------------|------------------------------|
|-------------------|------------------------------|
|-------------------|------------------------------|
|-------------------|------------------------------|
|
| PM--| PM| PM--| PM-| PM
| E S S E E E E E E E E E E Q E E
|-------------------|----------------0------0------|
|---------------7---|----------------3------3------|
|---------7-----7---|-----4----------2------2------|
|---------7-----7---|-----4------------------------|
|-5-5-5-5---5-5---5S|=2--------2--2------------2---|
|-------------------|------------------------------|
end Rhy Fig 3-|

w/Rhy Fig 3 x3
Q E E H W
|-------------------|------------------------------|
|----------------------|------------------------------|
|-------------------------|------------------------------|
|-------------------------|------------------------------|
|-------------------------|------------------------------|
|-------------------------|------------------------------|


W W
|-------------------|-----------------|
|-------------------|-----------------|
|-------------------|-----------------|
|-------------------|-----------------|
|-------------------|-----------------|
|-------------------|-----------------|


W W
|-------------------|------------------------------|
|-------------------|------------------------------|
|-------------------|------------------------------|
|-------------------|------------------------------|
|-------------------|------------------------------|
|-------------------|------------------------------|


W E E E E E Q E
|-------------------|-----------------------|
|-------------------|--------------------|
|-------------------|------------------------------|
|-------------------|------------------------------|
|-------------------|------------------------------|
|-------------------|------------------------------|


Q E E H W
|-------------------|------------------------------|
|----------------------|------------------------------|
|-------------------------|------------------------------|
|-------------------------|------------------------------|
|-------------------------|------------------------------|
|-------------------------|------------------------------|


H Q E E E E E E E E Q
|-------------------|-5/-----------0-------||
|-----------------0-|----0-12\-0-----------||
|-------------------|------------4---------||
|-------------------|----------------x\----||
|-------------------|----------------------||
|-------------------|----------------------||


w/Rhy Fig 3 x4
~~~~~~~~~~
E Q. E E E E Q Q +Q Q
|-------------------14b15-12-|----12-------14b16========(14)r-----|
|------------------------|------------------------------------|
|----------------------------|------------------------------------|
|---x/-----------------------|------------------------------------|
|----------------------------|------------------------------------|
|----------------------------|------------------------------------|


Q E E E E E E E E Q E +E E E
|---------------------16-17-|-19-19b21-----16pb17r(16)-------|
|------------17-19b20-------|--------------------------17----|
|---------16----------------|--------------------------------|
|---------------------------|--------------------------------|
|---------------------------|--------------------------------|
|---------------------------|--------------------------------|


~~ ~~~~~~~
Q E E +H E E +E E E E +E E
|-------------------------|---------------------------------------------|
|--------17---------------|-------14b15r===(14)---12--------------------|
|-16--------16-(16)-------|-------------------------------13b14r(13)p11-|
|-------------------------|---------------------------------------------|
|-------------------------|---------------------------------------------|
|-------------------------|---------------------------------------------|


~~~~~~~ PM ~~~
Q E E +E E E E +E +E +E +E +S +S +S +S +E E
|------------------------|---------------------------------------------------|
|------------------------|---------------------------------------------------|
|---------9-(9)s7---6b7==|=(6)r(6)b7==(6)r(6)b7==(6)r(6)b7==(6)r(6)-(6)\-----|
|-----------------7------|---------------------------------------------------|
|------------------------|---------------------------------------------------|
|------------------------|---------------------------------------------------|


~~~~~~~~~~~~
H E E E E +Q E +E +E E Q
|----------------14b15-12-|----(12)-------17b19====(17)---(17)r------|
|-------------12----------|------------------------------------------|
|-------------------------|------------------------------------------|
|-------------------------|------------------------------------------|
|-------------------------|------------------------------------------|
|-------------------------|------------------------------------------|


H E E +E +E E E +E +E +E E E E
|-------------19b21r(19)b21==(19)r-|---21b22==(21)r(21)-(21)-19-------|
|----------------------------------|------------------------------22--|
|----------------------------------|----------------------------------|
|----------------------------------|----------------------------------|
|----------------------------------|----------------------------------|
|----------------------------------|----------------------------------|


~~~~~~~
Q E E +Q Q W
|-19----------------------|------------------------------|
|-------------------------|------------------------------|
|--------21-21-(21)-------|------------------------------|
|-------------------------|------------------------------|
|-------------------------|------------------------------|
|-------------------------|------------------------------|


E E Q E E E E Q E E +H
|--------------------|------------()-------||
|---0---------------0-|---------------------||
|---------------------------|---------------------------||
|---------------------------|---------------------------||
|---------------------------|---------------------------||
|---------------------------|---------------------------||


S S S S S S S S S S S S S S S S W
||-------------------h12--------------------------------h12-|---------------|
||o--------------h10-----h10------------------------h10-----|---------------|
||------------h7-------------h7------------------h7---------|---------------|
||--------h11-------------------h11----------h11------------|---------------|
||o----h9---------------------------h9----h9----------------|---------------|
||--h7---------------------------------h7-------------------|---------------|
||-Riff A
| PM|
| E E Q E E Q E E E E Q Q
||----------------------------------------------------------|---------0-----|
||o---------------------------------------------------------|---------0-----|
||---4----------------------------------4-------------------|---9-----------|
||---4----------------------------------4-------------------|---9--------9--|
||o--2----------------------------------2-------------------|---7--------7--|
||----------------------------------------------------------|---0-0-0-------|
|-Rhy Fig 4

S S S S S S S S S S S S S S S S W
|---------------------h16-------------------------------------h14-|--------||
|-----------------h14-----h14-----------------------------h12-----|-------o||
|-------------h11-------------h11---------------------h11---------|--------||
|---------h14---------------------h14-------------h14-------------|--------||
|-----h12-----------------------------h12-----h12-----------------|-------o||
|-h10-------------------------------------h10---------------------|--------||
| end Riff A-|
| PM|
| E E Q E E Q E E E E Q Q
|---------------------------------------------------------|---------0-------||
|---------------------------------------------------------|---------0------o||
|---7---------------------------------------7-------------|---9-------------||
|---7---------------------------------------7-------------|---9--------9----||
|---5---------------------------------------5-------------|---7--------7---o||
|---------------------------------------------------------|---0-0-0---------||
end Rhy Fig 4-|

w/Rhy Fig 3 x6
E S S S S S S S S S S S S S S
|-----------------|
|-----------------------------------------------------------|
|-----------------------------------------------------------|
|-----------------------------------------------------------|
|-----------------------------------------------------------|
|-----------------------------------------------------------|


S S S S S S S S S S S S S S S S
|-----------------------|
|-----------------------------------------------------------------------|
|-----------------------------------------------------------------------|
|-----------------------------------------------------------------------|
|-----------------------------------------------------------------------|
|-----------------------------------------------------------------------|


S S S S S S S S S S S S S S S S
|----------------------------------------------------------------|
|-------------------------------------------------------|
|-------------------------|
|----------------------------------------------------------------|
|----------------------------------------------------------------|
|----------------------------------------------------------------|


S S S S S S S S S S S S S S E
|---------------------------------------------0-0-0-|
|---x-x-----------------------|
|-----------------------------------------------------------|
|-----------------------------------------------------------|
|-----------------------------------------------------------|
|-----------------------------------------------------------|


W +E E E E E E E E
|-0-----------------|----(0)-x/------0----0----x\--------|
|-------------------|-----------------------------0-0-x/-|
|-------------------|------------------------------------|
|-------------------|------------------------------------|
|-------------------|------------------------------------|
|-------------------|------------------------------------|


\2.5
E E E a +E +H +Q. E +H
|--------------------------------|-------------------------|
|-0-0----------------------------|-------------------------|
|-------2b4r(2)b4==(2)-(2)-------|-(2)-----[2]---(2)r------|
|--------------------------------|-------------------------|
|--------------------------------|-------------------------|
|--------------------------------|-------------------------|


~~~~
Q E E E E E E +Q E +E H
|-----------------14b15-12-|----(12)-------14b16====(14)r----------|
|--------------12----------|---------------------------------------|
|--------------------------|---------------------------------------|
|--------------------------|---------------------------------------|
|--------------------------|---------------------------------------|
|-/xs====x-0---------------|---------------------------------------|


Q E E E E E E E e Q E +E E E
|---------------------16-17-|-19-19b21-----16pb17r(16)--------|
|------------17-19b20-------|--------------------------17-----|
|---------16----------------|-----------------------------16--|
|---------------------------|---------------------------------|
|---------------------------|---------------------------------|
|---------------------------|---------------------------------|


~~~~~~~ ~~~~~~~~~~~~
E +E E E +Q E E +Q E E +E E Q
|---------------------------------|--------------------------------------|
|---------------------------17----|---------------17--------------17\----|
|-18b19r(18)---16-16-(16)------16-|----(16)-------------16---(16)--------|
|---------------------------------|--------------------------------------|
|---------------------------------|--------------------------------------|
|---------------------------------|--------------------------------------|


E E Q E E E E E E E E +Q Q
|-------------------------|-----------()--------|
|-------------------|------------------x/----|
|--------------------------------|------------------------------|
|--------------------------------|------------------------------|
|--------------------------------|------------------------------|
|--------------------------------|------------------------------|


PM ~~~~~~~~~~~~ ~~~~~
E E Q E E E E +Q Q +H
|----------------14b15-12-|----(12)-------17b19========(17)r-----|
|-0-----------12----------|--------------------------------------|
|-------------------------|--------------------------------------|
|-------------------------|--------------------------------------|
|-------------------------|--------------------------------------|
|-------------------------|--------------------------------------|


E E +E +E +E +E +Q E E Q E +E +E E
|---21---(21)b22==(21)r(21)b22==(21)r(21)---|-19-17-19---19b21==(19)r(19)-17--|
|-------------------------------------------|---------------------------------|
|-------------------------------------------|---------------------------------|
|-------------------------------------------|---------------------------------|
|-------------------------------------------|---------------------------------|
|-------------------------------------------|---------------------------------|


~~ ~~~~~~~~~~~~~~
|--3--| |--3--| |-3--|
Q E E +Q +E +E Q E S S S E S S S E S S S
|-19-----------------------------|----------16h17p16p===0-10h12p10p0-9h10p9p|
|--------17-17-(17)---(17)-(17)\-|------------------------------------------|
|--------------------------------|------------------------------------------|
|--------------------------------|------------------------------------------|
|--------------------------------|------------------------------------------|
|--------------------------------|------------------------------------------|


~~~
|--3--| |-3-| |-3-|
E S S S E S S S E S S S S S E E +E +H +E E
|-0-7h9p==7p0---------------------|------------------------------||
|-------------7h9p7p0-------------|------------------------------||
|---------------------7h9p7s6h7s4h|=6b7==(6)-(6)------(6)r/------||
|---------------------------------|------------------------------||
|---------------------------------|------------------------------||
|---------------------------------|------------------------------||


$
Rhy Fig 4 + Riff A x2 (both)

w/Rhy Fig 4 + Riff A x2 (both)
Gtr III
S S S S S S S S S S S S S S S S
|-16-17p=16p12------12--16-17p=16p12----12--16-17p=16p=12-|
|---------------17-------------------17-------------------|
|---------------------------------------------------------|
|---------------------------------------------------------|
|---------------------------------------------------------|
|---------------------------------------------------------|


S S S S S S S S S S S S S S S S
|----12-16-17p16p12----12-16-17p16p12----12-16-17p==|
|-17----------------17----------------17------------|
Добавлено: 30.12.2013
Другие материалы по этой песне:
  • Аккорды и текст

Страница создана 30.12.2013
http://primanota.ru/joe-satriani/mystical-potato-head-grove-thing-chords.htm
Привет, Гость.
Предлагаем пройти революционный курс по гитаре.
Подарок от PrimaNota.Ru, забирай!