PrimaNota.ru - самый крупный в мире бесплатный архив песенных текстов, аккордов, табулатур и нот


Joe Satriani - Goodbye Supernova - таба, видео

Регистрация Запомнить меня
Войти через:  Facebook Google Twitter Vk Yandex Mail.ru

Joe Satriani - Goodbye Supernova - таба, видео

Печатать
Просмотров: 141
Авторы: Joe Satriani

-------------------------------------------------------------------------------
                             Goodbye Supernova - Joe Satriani
-------------------------------------------------------------------------------
Tuning: Eb

Intro
e|-9----------5----------2----------------|
B|-7----------5----------0----------------|
G|-9----------7----------4----------------|
D|----------------------------------------|(x4)
A|----------------------------------------|
E|----------------------------------------|

Bridge
e|------------------------------------------|
B|--------------------------------------(7)-|
G|--------------------------------------(7)-|
D|-----------9-7----7-----------------------|(x2)
A|------7-9------9----9-7--9-7--------------|
E|-7-10------------------------10--7--------|

Verse 1
e|---------------------------------------------------------------|
B|---------------------------------------------------------------|
G|-(11)r9p7--9b11--9b11~~--(11)r9p7--9b11----9b11--9b11~~~~~~~~/-|
D|---------------------------------------------------------------|
A|---------------------------------------------------------------|
E|---------------------------------------------------------------|

e|---------------------------------------------------------------------------|
B|---------------------------------------------------------------------------|
G|-(11)r9p7--9b11r9b11----9b11--(11)r9--7--9b11------9b11--9b11--9b11~~~~~~\-|
D|---------------------------------------------------------------------------|
A|---------------------------------------------------------------------------|
E|---------------------------------------------------------------------------|

e|-----------------------------------------------|---------------------------------------------|
B|-----------------------------------------------|---------------------------------------------|
G|-----6--7~~--9--9~~--9--9/12~~~~~~--11br~~~~~~-|-4\2/4/7~~~~~~~~~~----4\2/4/9~~~~~~~~--------|
D|---7-------------------------------------------|---------------------------------------9p7-9-|
A|-7---------------------------------------------|---------------------------------------------|
E|-----------------------------------------------|---------------------------------------------|

Bridge
e|------------------------------------------|
B|--------------------------------------(7)-|
G|--------------------------------------(7)-|
D|-----------9-7----7-----------------------|(x2)
A|------7-9------9----9-7--9-7--------------|
E|-7-10------------------------10--7--------|

Verse 2
e|--------------------------------------------------------------------------------17-----------------|
B|-(19)r17p15--17b19r17b19---17b19-17-15----15-17-15-17b19--17b19--17b19--17b19------17b19~~~~r17p15-|
G|---------------------------------------16----------------------------------------------------------|
D|---------------------------------------------------------------------------------------------------|
A|---------------------------------------------------------------------------------------------------|
E|---------------------------------------------------------------------------------------------------|

e|-10b12--10~~~7----10-7----8b9~~~~7h9p7----7----------------------|
B|---------------7-------7---------------10---7-10-7---7-----------|
G|---------------------------------------------------9---9/11~~~~\-|
D|-----------------------------------------------------------------|
A|-----------------------------------------------------------------|
E|-----------------------------------------------------------------|

e|----------------------------------------------------------|------------------------------------------------|
B|-------14-15~~14--17~~15--17b20~~~~~~~~17b19~~~~~~~r17p15-|-12\10/12/15~~~~~~17b19--------12\10/12/15~~~~\-|
G|----14----------------------------------------------------|------------------------------------------------|
D|-14-------------------------------------------------------|------------------------------------------------|
A|----------------------------------------------------------|------------------------------------------------|
E|----------------------------------------------------------|------------------------------------------------|

Chorus
e|-21--------17---------12/14--------------|------------------------------------------------------------------|
B|-----------------------------------------|-3/5--5/7--7/10--10/12--12~~h15----12h15p12\10\7/10h12~~~~~~~~p10-|
G|-18--------14---------9/11---------------|------------------------------------------------------------------|
D|-----------------------------------------|------------------------------------------------------------------|
A|-----------------------------------------|------------------------------------------------------------------|
E|-----------------------------------------|------------------------------------------------------------------|

e|-21--------17---------12/14--------------|
B|-----------------------------------------|
G|-18--------14---------9/11---------------|
D|-----------------------------------------|
A|-----------------------------------------|
E|-----------------------------------------|

e|------------------------------------------------------17---------------------------------------|
B|-5h7p5\3/5/7/10~~~h12--10h12p10/12/15h17~~p15--17b19-----17b19--17b19-17b19~~~~17-15-15~~~~~~\-|
G|-----------------------------------------------------------------------------------------------|
D|-----------------------------------------------------------------------------------------------|
A|-----------------------------------------------------------------------------------------------|
E|-----------------------------------------------------------------------------------------------|

Solo
e|--------------------------------------------10/14\10--------------------------------------|
B|-3p2h3/5/7/10/14~~~~\10----------10/15~~~~-----------10/14\10\7\5\3/5~~--5\3\2/3~~~~~~bar-|
G|------------------------------------------------------------------------------------------|
D|------------------------------------------------------------------------------------------|
A|------------------------------------------------------------------------------------------|
E|------------------------------------------------------------------------------------------|
                                                   
e|-------------------------------------------9br-------------------------------------------------|
B|-3/5/7/10/14~~~~\10----7/12~~~~~~~~~~~\---------10--------------------------------12~~~~~~~~~\-|
G|---------------------------------------------------11p9p7p6------------------------------------|
D|-----------------------------------------------------------------------------------------------|
A|------------------------------------------------------------9p7p5p4--5h7h9---------------------|
E|-----------------------------------------------------------------------------------------------|

e|-------------------7h9~~7-----7~~~-------7/10~~~p12----12b14r12b14r12p10~~12-|
B|-------------7-10---------10------10--10-------------------------------------|
G|---------6-7-----------------------------------------------------------------|
D|-----4-7---------------------------------------------------------------------|
A|-4-5-------------------------------------------------------------------------|
E|-----------------------------------------------------------------------------|

e|-9b10r9---------------------------------------------------------------|
B|---------10-----------------------------------------------------------|
G|-------------9/11\9/11~~~/14--11h14p11\9/11\9\7~~~-6h7p6\4\2/4~~~~~~\-|
D|----------------------------------------------------------------------|
A|----------------------------------------------------------------------|
E|----------------------------------------------------------------------|

e|--------------------------7-9-12-7-9-12-7---------------------------------|
B|---------------------7-10-----------------7-10---7------------------------|
G|-------------4-6-7-9---------------------------9---7-9---7----------------|
D|-------4-5-7-------------------------------------------9---7-9---7--------|
A|-4h5h7---------------------------------------------------------9---7-9~~7-|
E|--------------------------------------------------------------------------|

e|---7--9--12--7-9----7-9-10-7-9--(10)r9b10r9-7----7----------------------------10-12--14--12--14-|
B|-7---------------10---------------------------10---10/12\10/12~~p10--10h12h14-------------------|
G|------------------------------------------------------------------------------------------------|
D|------------------------------------------------------------------------------------------------|
A|------------------------------------------------------------------------------------------------|
E|------------------------------------------------------------------------------------------------|

e|-17~~~~~~--17-14--17-14-17-14-17-14-17b19~~r17-14----------------------------------------------|
B|--------------------------------------------------(19)r17p15~~~~p17--15b17-r15--15b17-15b17r15-|
G|-----------------------------------------------------------------------------------------------|
D|-----------------------------------------------------------------------------------------------|
A|-----------------------------------------------------------------------------------------------|
E|-----------------------------------------------------------------------------------------------|

e|---------------------------------------------15-------------------------19b21-19b21~~--17----17~~~19-|
B|-14~~~------------15----15~~17b19------17b19----17b19-17-15----15~~~~\--------------------19---------|
G|-------14~~~~--16----16-------------------------------------16---------------------------------------|
D|-----------------------------------------------------------------------------------------------------|
A|-----------------------------------------------------------------------------------------------------|
E|-----------------------------------------------------------------------------------------------------|

e|-22b24--22--21~-19--17--14--h17p14\12\10-12-10h12p10\9-------------------------------|
B|-------------------------------------------------------------------------------------|
G|-------------------------------------------------------11p9\7-7h9p7\6-7---6----------|
D|------------------------------------------------------------------------9---7/9~~~~\-|
A|-------------------------------------------------------------------------------------|
E|-------------------------------------------------------------------------------------|

e|---------------------------------------------------------------------------|
B|---------------------------------------------------------------------------|
G|------------------------------------------------------7-/9\7/9-h11\7~~~~~~-|
D|-4h7p4p0h4/7/11~~/12----7h9p7p0h4/7/9\7/9~~/12----7/9----------------------|
A|---------------------------------------------------------------------------|
E|---------------------------------------------------------------------------|

e|-------------------------------14-17~~~~~~-|
B|-------------------------14-15-------------|
G|------------------11-14--------------------|
D|------------11-12--------------------------|
A|------9-12---------------------------------|
E|-9-10--------------------------------------|

e|-14----14----------------------------------------------------------------------------------------------|
B|----17----17-15-14-----15-14----14---------------------------------------------------------------------|
G|-------------------16--------16----16-14----14----14---------------------------------------------------|
D|-----------------------------------------16----16----16-14-16-14-12\11\9h11p9h11-7h9p7h9-4\2-0----\bar-|
A|-------------------------------------------------------------------------------------------------------|
E|-------------------------------------------------------------------------------------------------------|


************************************
| bar use tremolo bar
| /   slide up
| \   slide down
| h   hammer-on
| p   pull-off
| ~   vibrato
| +   harmonic
| x   Mute note
| b   Bend
| pb  Pre-bend
| br  Bend release
| pbr Pre-bend release
| brb Bend release bend

************************************
Добавлено: 11.04.2016
Другие материалы по этой песне:
  • Аккорды и текст

Страница создана 11.04.2016
http://primanota.ru/joe-satriani/goodbye-supernova-chords.htm
Привет, Гость.
Предлагаем пройти революционный курс по гитаре.
Подарок от PrimaNota.Ru, забирай!