PrimaNota.ru - самый крупный в мире бесплатный архив песенных текстов, аккордов, табулатур и нот


Joe Satriani - House Full Of Bullets - аккорды и текст, таба, бас-таба, видео

Регистрация Запомнить меня
Войти через:  Facebook Google Twitter Vk Yandex Mail.ru

Joe Satriani - House Full Of Bullets - аккорды и текст, таба, бас-таба, видео

Печатать
Просмотров: 170
Авторы музыки: Joe Satriani

House Full Of Bullets
Joe Satriani
~~~~ P P P P
E|------------------------------------------------|
B|------------------------------------------------|
G|------------------------------------------------|
D|------------------------------------------------|
A|------------------------------------------------|
E|--2-----0----2--0----2---2--0--2--0----0--2--0--|


~~~~ P P P P
E|------------------------------------------------|
B|------------------------------------------------|
G|------------------------------------------------|
D|------------------------------------------------|
A|--2-----0----2--0----2---2--0--2--0----0--2--0--|
E|------------------------------------------------|


~~~~ P P P P
E|----------------------------------------------------|
B|----------------------------------------------------|
G|----------------------------------------------------|
D|----------------------------------------------------|
A|--2-----0----2--0----2---2>(3)>(2)--0---2--0--------|
E|----------------------------------------------2--0--|


~~~~ P P P P
E|------------------------------------------------|
B|------------------------------------------------|
G|------------------------------------------------|
D|------------------------------------------------|
A|------------------------------------------------|
E|--2-----0----2--0----2---2--0--2--0----0--2--0--|


~~~~ P P P P
E|------------------------------------------------|
B|------------------------------------------------|
G|------------------------------------------------|
D|------------------------------------------------|
A|------------------------------------------------|
E|--2-----0----2--0----2---2--0--2--0----0--2--0--|


~~~~ P P P
E|------------------------------------------------|
B|------------------------------------------------|
G|------------------------------------------------|
D|--4-----2----4--2----4---4--2--4--2----2--4--0--|
A|------------------------------------------------|
E|------------------------------------------------|


~~~~ P P P P
E|----------------------------------------------------|
B|----------------------------------------------------|
G|----------------------------------------------------|
D|----------------------------------------------------|
A|--2-----0----2--0----2---2>(3)>(2)--0---2--0--------|
E|----------------------------------------------2--0--|


~~~~ P P P P
E|------------------------------------------------|
B|------------------------------------------------|
G|------------------------------------------------|
D|------------------------------------------------|
A|------------------------------------------------|
E|--2-----0----2--0----2---2--0--2--0----0--2--0--|


~~~~ P
E|-----------------------------|
B|-----------------------------|
G|-----------------------------|
D|-----------------------------|
A|-----------------------------|
E|--2-----0----2--0----2/------|
^
Slide off neck

P.M.-----------------------------|
P
E|---------------------------------------------|
B|--4----2-------------------------------------|
G|--2----2-------------------------------------|
D|---------------------------------------------|
A|---------------------------------------------|
E|------------0--2--0--2--2--0--2--0--0--2--0--|


P.M.-----------------|
~~~~ P
E|------------------------------------|
B|----------------------X--2---4---5--|
G|----------------------X--2---2---2--|
D|------------------------------------|
A|------------------------------------|
E|--2-----0----2--0--2----------------|


P.M.-----------------------------|
P
E|---------------------------------------------|
B|--4----2-------------------------------------|
G|--2----2-------------------------------------|
D|---------------------------------------------|
A|---------------------------------------------|
E|------------0--2--0--2--2--0--2--0--0--2--0--|


P.M.-----------------|
~~~~ P
E|------------------------------------|
B|----------------------X--2---4---5--|
G|----------------------X--2---2---2--|
D|------------------------------------|
A|------------------------------------|
E|--2-----0----2--0--2----------------|


P.M.-----------------------------|
P
E|---------------------------------------------|
B|--4----5-------------------------------------|
G|--2----2-------------------------------------|
D|---------------------------------------------|
A|------------0--2--0--2--2--0--2--0--0--2--0--|
E|---------------------------------------------|


~~~~ P
E|------------------------------------|
B|----------------------X--2---4---5--|
G|----------------------X--2---2---2--|
D|------------------------------------|
A|--2-----0----2--0--2----------------|
E|------------------------------------|


P.M.-----------------------------|
P
E|---------------------------------------------|
B|--4----2-------------------------------------|
G|--2----2-------------------------------------|
D|---------------------------------------------|
A|---------------------------------------------|
E|------------0--2--0--2--2--0--2--0--0--2--0--|


~~~~ P
E|------------------------------------|
B|----------------------X--2---4---5--|
G|----------------------X--2---2---2--|
D|------------------------------------|
A|------------------------------------|
E|--2-----0----2--0--2----------------|


P P P
E|-------2-----------------------------------|
B|--5----2-----------------------------------|
G|--4----------------------------------------|
D|-------------------------------------------|
A|------------4--2--4---4--2--4--2--2--4--0--|
E|-------------------------------------------|


~~~~ P
E|------------------------------------|
B|----------------------X--2---4---5--|
G|----------------------X--2---2---2--|
D|------------------------------------|
A|--2-----0----2--0--2----------------|
E|------------------------------------|


P P P P
E|---------------------------------------------|
B|--4----2-------------------------------------|
G|--2----2-------------------------------------|
D|---------------------------------------------|
A|---------------------------------------------|
E|------------0--2--0--2--2--0--2--0--0--2--0--|


~~~~ P
E|--------------------------------|
B|--------------------------------|
G|--------------------------------|
D|-----------------------------4--|
A|--------------------------------|
E|--2-----0----2--0----2/---------|
^
Slide off neck

Next bar played 11 times

E|--7---7-------5----5--------5------------|
B|--4---4-------5----5--------5---7--5-----|
G|-----------4----------4---------6--4-----|
D|------------------------4-------------4--|
A|-----------------------------------------|
E|-----------------------------------------|


E|--7----7-------5----------------|
B|--4----4-------5----------------|
G|------------4-------------------|
D|--------------------------------|
A|--------------------------------|
E|----------------------X/--------|
Pick Slide

Solo

H H P H P H P
E|-----------------------------------------------|
B|--5--7---5--7----(7)--5------------------------|
G|---------------------------6--4----------------|
D|-----------------------------------7--4--------|
A|-----------------------------------------------|
E|-----------------------------------------------|
^ ^
These are left hand hammer-on's

H H P P H H P P H H P P
E|--------------------------------------------------------------------
B|-------12---9--10--12--10--9/10--12--14----12--10/9--10--12--10--9--
G|--6/9---------------------------------------------------------------
D|--------------------------------------------------------------------
A|--------------------------------------------------------------------
E|--------------------------------------------------------------------

P H H P P H H P P H P
E------------------------|-----------------------------------------
B------------------------|-----------------------------------------
G--11--8--9--11----9--8--|--(8)/9--11--13----11--9/8--9--8/6----8--
D------------------------|-----------------------------------------
A------------------------|-----------------------------------------
E------------------------|-----------------------------------------

H P H H P P P H
E----------------------------------------------|------------
B----------------------------------------------|------------
G--6--8--6-----6-------------------------------|------------
D-----------9-----9--6/7--9--11--9--7----------|---------9--
A--------------------------------------11--7/--|--/6--7-----
E----------------------------------------------|------------

H H P P ~~~~ P P
E--------------------------------------------4--9--|--4--------
B------------------------------------------X-------|-----5--4--
G----------------------------------------X---------|-----------
D--6--7--9--7--6-----------------------------------|-----------
A-----------------9--/12/9----(9)--/2--------------|-----------
E--------------------------------------------------|-----------
Rake

P P H P P H P P
E-----4-----------7---5--4/2---4--5--4--2-----2--------------|
B--7-----7--5--4---------------------------5-----4--5--4--2--|
G------------------------------------------------------------|
D------------------------------------------------------------|
A------------------------------------------------------------|
E------------------------------------------------------------|

H P
E|--------------------------------------------------|
B|-----2--4--2-----2--------------------------------|
G|--4-----------4-----4--2/1------------------------|
D|----------------------------------7-------9/11/9--|
A|-------------------------------------9------------|
E|--------------------------------------------------|


E|-----------------------------------------------------------------|
B|-----------------------------------------------------------------|
G|-----------------------------------------------------------------|
D|--(9)/-14-/-13-/-11-/-13-/-14-/-16-/-13-/-14-/-11-/-13-/-11-/-9--|
A|-----------------------------------------------------------------|
E|-----------------------------------------------------------------|
 Spaced this out a bit more to make it more readable :)

sh~~~~~~~~~~~~~~~~~
E|--------------------------------------------|
B|--------------------------------------------|
G|--------------------------------11--11--13--|
D|--/11/7----7-----7-----7-----9--------------|
A|--------------------------------------------|
E|--------------------------------------------|

sh P
E|--12----------------------------------------------------------|
B|------14--13--12----13>(14)>(13)--12-------12----12----12-----|
G|----------------------------------------14----14----14----14--|
D|--------------------------------------------------------------|
A|--------------------------------------------------------------|
E|--------------------------------------------------------------|


E|---------------------------------------------------------------------|
B|--12----12----12----12----12----12----12----12----12--12--12--12-----|
G|-----14----14----14----14----14----14----------14----------------14--|
D|---------------------------------------------------------------------|
A|---------------------------------------------------------------------|
E|---------------------------------------------------------------------|

~~~~ ~~~~~~
E|---------------------------------------------------|
B|---------------------------------------------------|
G|--11----11--14------11------9--11-------11--9--11--|
D|----------------11-----------------9--X------------|
A|---------------------------------------------------|
E|---------------------------------------------------|
Rake

~~~~~~ H H
E|-------------9----------------------------|--9--11---9--11--
B|--12-----------9---12---------------------|-----------------
G|------11--9------9-----11--9--11------11--|-----------------
D|------------------------------------------|-----------------
A|------------------------------------------|-----------------
E|------------------------------------------|-----------------


H P H P H P P H P H
E--9--11--9------------------------------------------------------------|
B---------------------10---9--10--9------------------------------------|
G-----------9--11--9------------------------11---9--11--9--------------|
D------------------------------------11--9-----------------11--9---11--|
A----------------------------------------------------------------------|
E----------------------------------------------------------------------|


P H H ~~~~ H H sh
E|-------------------------------------------------------------------|
B|-----------------------------------------------------------14------|
G|-------------------------------------------------------13----------|
D|--9--9------9-------------------------11--/13--14--16----------16--|
A|--------12-----12--11---9/11--12--14-------------------------------|
E|-------------------------------------------------------------------|

~~~~~~ ~~~~
E|---------------------------------------------12------|
B|----------------------------------------/13------14--|
G|--13--14>(16)>(14)--14------14----14/9---------------|
D|-----------------------------------------------------|
A|-----------------------------------------------------|
E|-----------------------------------------------------|


E|----------14-------------12-----------------------------------------|
B|--13--12------13>(13.5)------14--13--12-----------------------------|
G|-----------------------------------------14--11----14----11---------|
D|------------------------------------------------13----13----11--14--|
A|--------------------------------------------------------------------|
E|--------------------------------------------------------------------|
^Quarter tone bend

~~~~~~
E|------------------------------------------------|
B|----------------------------------/16>(19)------|
G|--------------11------14------11----------------|
D|--13--13----------11------13--------------------|
A|------------------------------------------------|
E|------------------------------------------------|
^
slow bend!
sh ~~~~~~
E|--14----------------------------------14-----------------|
B|------17>(19)---17>(19)---17>(19)---------14---/19>(22)--|
G|---------------------------------------------------------|
D|---------------------------------------------------------|
A|---------------------------------------------------------|
E|---------------------------------------------------------|

~~~~~
E|------------------------x---x---x---17>(19)>(17)>(19)--|
B|--(22)--(22)----(22)/---x---x---x----------------------|
G|------------------------x---x---x----------------------|
D|-------------------------------------------------------|
A|-------------------------------------------------------|
E|-------------------------------------------------------|
^
bend, lower and rebend

~~~~~~
E|--19>(21)---19>(21)----(21)-----x---x---x---x---21>(24)----|
B|--------------------------------x---x---x---x--------------|
G|--------------------------------x---x---x---x--------------|
D|-----------------------------------------------------------|
A|-----------------------------------------------------------|
E|-----------------------------------------------------------|

~~~~
E|--21--20--19--17--19----------------------14--|
B|----------------------16----(16)/----/16------|
G|----------------------------------------------|
D|----------------------------------------------|
A|----------------------------------------------|
E|----------------------------------------------|

P P P
E|---------------------------------------------------------------
B|--17--16--15--14---16--14------14------------------------------
G|---------------------------16------17--16--14------16------14--
D|-----------------------------------------------16------16------
A|---------------------------------------------------------------
E|---------------------------------------------------------------

P ~~~~ P H P
E-------------------------------------------|------------------------
B-------------------------------------------|------------------------
G-------------------------------------------|------------------------
D--16--14/13---14---13/11---13--11--13--11--|--9--11------9----------
A-------------------------------------------|---------12-----11--12--
E-------------------------------------------|------------------------

~~~~~~ ~~~~~ ~~~~ P
E----------------|------------------------------------------|
B----------------|------------------------------------------|
G----------------|------------------------------------------|
D--9/12/7---9/4--|--4-------4------4----(4)/--------13--11--|
A----------------|------------------------------------------|
E----------------|------------------------------------------|


E|---------------------------------------------------------------|
B|--14-14----------14-14----------14-14----------14-14-----------|
G|--14-14----------14-14----------14-14----------14-14-----------|
D|--------11-12-11-------11-13-11-------11-13-11-------11-13-11--|
A|---------------------------------------------------------------|
E|---------------------------------------------------------------|


E|-----------------------------------------------------------------|
B|--14-14----------14-14-------------------------------------------|
G|--14-14----------14-14--11----12-13-----11/9---11----------------|
D|--------11-13-11-----------14-------14--11/9---11---/11--11--11--|
A|-----------------------------------------------------------------|
E|-----------------------------------------------------------------|


E|--------------------------------------------------------------|
B|--14-14----------14-14----------14-14------------14-14--------|
G|--14-14----------14-14----------14-14--11----11--14-14--------|
D|--------11-13-11-------11-13-11-----------14-----------11-----|
A|----------------------------------------------------------14--|
E|--------------------------------------------------------------|

P ~~~~
E|-----------------------------------------------------14---------14--|
B|------------------14----------16-14----16--------15-----17>(19)-----|
G|---------------16-14--16--17--16-14----16--14----16-----------------|
D|--/14--12--14--16-------------------16------------------------------|
A|--------------------------------------------------------------------|
E|--------------------------------------------------------------------|

~~~~ ~~~~~~ H
E|-----------------14----16------14/--------------|
B|--17--(17)>19-------14------------------16--17--|
G|------------------------------------------------|
D|------------------------------------------------|
A|------------------------------------------------|
E|------------------------------------------------|
^
prebent

P H P H
E|-----------------------------------------------------------7/--|
B|--16--17--16/12---14--16---12--14------12--12/5--7--9--10------|
G|-----------------------------------14--------------------------|
D|---------------------------------------------------------------|
A|---------------------------------------------------------------|
E|---------------------------------------------------------------|

sh---} H P H P H P P P
E|--/4--7--5---4/2--4--5--4--2-------------------------------------|
B|------------------------------5--2---4--5--4--2---2--4-----------|
G|------------------------------------------------4----------4--2--|
D|-----------------------------------------------------------------|
A|-----------------------------------------------------------------|
E|-----------------------------------------------------------------|

P H H P P H H P P P P H H H H P P
E|-------------------------------------------------------------------
B|-------------------------------------------------------------------
G|--1--2--4--2--1/2--4--6--4--2-----------------------2--4--6--4--2--
D|-------------------------------6--4--2--4--6---2-------------------
A|-------------------------------------------------------------------
E|-------------------------------------------------------------------

H H P P H H P P
E-----------------------------------------|
B-----------------------------------------|
G-----2--4--6--4--2-----2--4--6--4--2-----|
D--6-----------------6-----------------6--|
A-----------------------------------------|
E-----------------------------------------|


H H P P H H P P H H P P
E|--------------------------------------------------------
B|--------------------------------------------------------
G|--2--4--6--4--2-----2--4--6--4--2-----2--4--6--4--2-----
D|-----------------6-----------------6-----------------6--
A|--------------------------------------------------------
E|--------------------------------------------------------

Добавлено: 08.01.2014
Другие материалы по этой песне:

Страница создана 22.03.2012
http://primanota.ru/joe-satriani/house-full-of-bullets-chords.htm
Привет, Гость.
Предлагаем пройти революционный курс по гитаре.
Подарок от PrimaNota.Ru, забирай!