PrimaNota.ru - самый крупный в мире бесплатный архив песенных текстов, аккордов, табулатур и нот


Joe Satriani - I Just Wanna Rock - текст песни, таба, видео

Регистрация Запомнить меня
Войти через:  Facebook Google Twitter Vk Yandex Mail.ru

Joe Satriani - I Just Wanna Rock - текст песни, таба, видео

Печатать
Просмотров: 547
This is the basic main intro riff first, Satch doesn't always hit the G on the
end though, he does a few little things like raising the volume knob on his
guitar and some pick slides a couple of times aswell but I find it more fun to do my own 
funny noises rather than just completely copy him. The main riff does return a
little later in the song also. Then after the main riff I've included the talkbox
bit aswell.
Listen to the song for tempo. You can listen to it on Joe's official site www.satriani.com.

Main:

E|-------------------------------------3-|
B|-------------------------------------x-|
G|--2--2--2-----------------2--2--2----0-|
D|--2--2--2-----------------2--2--2----0-|
A|--0--0--0---0-3-0-5-0-3~--0--0--0----2-|
E|-------------------------------------3-|


Talkbox Bit:

E|----------------------------------------------------|
B|----------------------------------------------------|
G|----------------------------------------------------|
D|----------------------------------------------------|     x2
A|----0---3~~----0---3~~----0---3~-5-3-5b7--3-0~~~----|
E|--3---3------3---3------3---3-----------------------|


E|-------------------------------------------------------|
B|-------------------------------------------------------|
G|-------------------------------------------------------|
D|------------------------5h7p5--------------------------|
A|----0---3~~----0---3~~--------7-5b7r5-3-5-5b7--3-0~~~--|
E|--3---3------3---3-------------------------------------|

E|----------------------------------------------------------|
B|----------------------------------------------------------|
G|----------------------------------------------------------|
D|---------------------------5h7p5--------------------------|
A|----0---3~~---5b7r5-3-0~~--------7-5b7r5-3-5-5b7--3-0~~~--|
E|--3---3---------------------------------------------------|

Ok I think thats about it. Like I said this is just a basic tab of the intro. So
have fun with it.
Добавлено: 22.04.2012
Другие материалы по этой песне:

Страница создана 22.04.2012
http://primanota.ru/joe-satriani/i-just-wanna-rock-chords.htm
Привет, Гость.
Предлагаем пройти революционный курс по гитаре.
Подарок от PrimaNota.Ru, забирай!