PrimaNota.ru - самый крупный в мире бесплатный архив песенных текстов, аккордов, табулатур и нот


Joe Satriani - A Love Eternal - аккорды и текст, таба, видео

Регистрация Запомнить меня
Войти через:  Facebook Google Twitter Vk Yandex Mail.ru

Joe Satriani - A Love Eternal - аккорды и текст, таба, видео

Печатать
Просмотров: 232
A Love Eternal
Joe Satriani
e|-------------------|-------------------|---------------------|
B|-------------------|-------------------|---------------------|
G|--9/11-11----------|--9/11-11------9~--|--9/11-11------------|
D|----------11-7/9~--|----------12p9-----|----------11-7/9~----|
A|-------------------|-------------------|---------------------|
E|-------------------|-------------------|---------------------|

e|----------------------|---------------------------------------------------|
B|----------------------|--------------------12-13-12-----------------------|
G|--9/11-11---------9~--|--9/11/12/14~-12/14----------14-14/16~-------------|
D|----------10/12-9-----|---------------------------------------11/12-12~---|
A|----------------------|---------------------------------------------------|
E|----------------------|---------------------------------------------------|

e|-------------------------------------------------|-------------------------|
B|--10/12-12-14-15-14~-1412-14-15-17b(19)-17-17~--|--1410/127/10/12~---------|
G|-------------------------------------------------|-------------------------|
D|-------------------------------------------------|-------------------------|
A|-------------------------------------------------|-------------------------|
E|-------------------------------------------------|-------------------------|

e|----------------------------------------|-----------------------------|
B|--7h8p75-7-8-5-7---5-------------------|------------------------------|
G|------------------7---6-7-4-6/76-42~--|-------------------------------|
D|----------------------------------------|-----------------------------|
A|----------------------------------------|--2/4/7/12/14~-1612~---------|
E|----------------------------------------|-----------------------------|

e|------------------------------------|--------------------------------------|
B|------------------------------------|--------------------12-13-12----------|
G|------------------------------------|--9/11/12-12/14~-14----------14-------|
D|--7/975/754/542/4/542p0h2~--|----------------------------------------------|
A|------------------------------------|--------------------------------------|
E|------------------------------------|--------------------------------------|

e|------------------------|--------------------------------------------------|
B|------------------------|--12-14-15-14-12-14-15-17b(19)--17b(20)~----------|
G|--14/16~----------------|--------------------------------------------------|
D|---------11-12/1412~---|---------------------------------------------------|
A|------------------------|--------------------------------------------------|
E|------------------------|--------------------------------------------------|

solo....
e|-----------------------------|---------------------------------------|
B|--15p14h15~-14-1412-1210~--|-----------8/10-8~-6-8-6-5---------------|
G|-----------------------------|----7-9-10-----------------7~----------|
D|-----------------------------|--7------------------------------------|
A|-----------------------------|---------------------------------------|
E|-----------------------------|---------------------------------------|

e|-----------------------|---------------------------------------------------|
B|-----------8/10-10/8~--|-----------8-10/13108--10/13108/10~----------------|
G|----7-9-10-------------|----7-9-10-----------------------------------------|
D|--7--------------------|--7------------------------------------------------|
A|-----------------------|---------------------------------------------------|
E|-----------------------|---------------------------------------------------|


e|--------------------|---------------------10-------------10---------------|
B|-----------8-10~p8--|----5/6-8/10-13b(15)----10--13b(15)----10--13b(15)---|
G|----7-9-10----------|--7--------------------------------------------------|
D|--7-----------------|-----------------------------------------------------|
A|--------------------|-----------------------------------------------------|
E|--------------------|-----------------------------------------------------|

e|--10-----------|-10--------------------------------------------------------|
B|-----13b(15)~--|----10-13--------------------------------------------------|
G|---------------|----------12b(13)r12-10-12/14-10-75~---6b(7)r6-------------|
D|---------------|--------------------------------------7---------7-5/7~-----|
A|---------------|-----------------------------------------------------------|
E|---------------|-----------------------------------------------------------|

e|----------------------------------------|
B|----------------------------------------|
G|--11b(12)r11-9-7------------------------|
D|-----------------10-9-75-5/72-2~--------|
A|----------------------------------------|
E|----------------------------------------|

harmonics.........................................
e|-----12-------------------------------------------|
B|--7--------12-------------------------------------|
G|-------7--------12------------------------12------|
D|-------------7--------12----------12---7------7---|
A|------------------7-------12---7------------------|
E|-----------------------7--------------------------|

e|--------------------------------------------------------------------|
B|----10--12--12/14--14/15--1514--1412--1210--10/12--12~--------------|
G|--9-----------------------------------------------------------------|
D|--------------------------------------------------------------------|
A|--------------------------------------------------------------------|
E|--------------------------------------------------------------------|

e|------------------------------|--------------------------------------------|
B|------------------------------|--------------------------------------------|
G|--14-12-11/1211--------------|---------------------------------------------|
D|-----------------1412-12/14--|--1412-97-5/7-7/95---------------------------|
A|------------------------------|-----------------------75/7/1075/7~---------|
E|------------------------------|--------------------------------------------|

e|-------------------|--------------------------|----------------------------|
B|-------------------|--------------------------|----------------------------|
G|--9/11-11----------|--9/11-11------7/9~-76---|--9/11--11-------------------|
D|----------11-7/9~--|----------12-9------------|-----------11-7/9~----------|
A|-------------------|--------------------------|----------------------------|
E|-------------------|--------------------------|----------------------------|

e|-------------------|------------------------------------|
B|--9/11-11------9~--|--76/7~--7/9~--9/11~--11/14~--------|
G|----------12-9-----|------------------------------------|
D|-------------------|------------------------------------|
A|-------------------|------------------------------------|
E|-------------------|------------------------------------|

Some Of The Backing Chords



e|--------2----|--------2----|----------0----|----------0----|
B|------3---3--|------0---0--|--------3---3--|--------2---2--|
G|----2--------|----0--------|------4--------|------2--------|
D|--0----------|-------------|----4----------|----2----------|
A|-------------|-------------|--2------------|--0------------|
E|-------------|--3----------|---------------|---------------|


e|--------2----|--------2----|------------3----|-------------|--------2----|
B|------3---3--|------1---1--|----------3---3--|--------0----|------3---3--|
G|----2--------|----2--------|--------0--------|------1---1--|----2--------|
D|--0----------|--0----------|------0----------|----2--------|--0----------|
A|-------------|-------------|----2------------|-------------|-------------|
E|-------------|-------------|--3--------------|--0----------|-------------|


1st time
e|----------0----|
B|--------2---2--|
G|------2--------|
D|----2----------|
A|--0------------|
E|---------------|


2nd time
e|--------3----|-------------|-------------|-------------|-------------|-2-|
B|------2---2--|--------3----|--------2----|-------------|--------2----|-3-|
G|----2--------|------4---4--|------2---2--|--------4----|------2---2--|-2-|
D|--0----------|----4--------|----2--------|------5---5--|----2--------|-0-|
A|-------------|--2----------|--0----------|----5--------|--0----------|---|
E|-------------|-------------|-------------|--3----------|-------------|---|

power chords just after harmonics
e|-----|--------|--------|
B|-----|--------|--------|
G|-----|--7--7--|--------|
D|--2--|--7--7--|--7--7--|
A|--2--|--5--5--|--7--7--|
E|--0--|--------|--5--5--|
Добавлено: 11.12.2013
Другие материалы по этой песне:

Страница создана 05.03.2012
http://primanota.ru/joe-satriani/a-love-eternal-chords.htm
Привет, Гость.
Предлагаем пройти революционный курс по гитаре.
Подарок от PrimaNota.Ru, забирай!