PrimaNota.ru - самый крупный в мире бесплатный архив песенных текстов, аккордов, табулатур и нот


Joe Satriani - A Train Of Angels - аккорды и текст, видео

Регистрация Запомнить меня
Войти через:  Facebook Google Twitter Vk Yandex Mail.ru

Joe Satriani - A Train Of Angels - аккорды и текст, видео

Печатать
Просмотров: 163
A Train Of Angels
Joe Satriani
Intro: (after drums)
E|------------------------------------------|
B|------------------------------------------|
G|--------------------------4---5---5/7---7-|
D|----9/10--10\9--9\7---7---5---5---5/7---7-|
A|--00----00----00---00---00--00--00---00---|
E|------------------------------------------|

E|---------------------------------------------|
B|---------------------------------------------|
G|-----------------------------6---7---7/9---9-|
D|----11/12--12\11--11\9---9---7---7---7/9---9-|
A|--00-----00-----00----00---00--00--00---00---|
E|---------------------------------------------|

E|-------------------------------------------------|
B|-------------------------------------------------|
G|-------------------------------8---9---9/11---11-|
D|----12/13--13\12--12\11---11---9---9---9/11---11-|
A|--00-----00-----00-----00----00--00--00----00----|
E|-------------------------------------------------|

E|-------------------------------------------|
B|-------------------------------------------|
G|-------------------------------------5-5-5-|
D|----9/10--10\9--9\7---7---10\9--9\7--5-5-5-|
A|--00----00----00---00---00----00---00------|
E|-------------------------------------------|

E|------------------------------------------|
B|------------------------------------------|
G|--------------------------4---5---5/7---7-|
D|----9/10--10\9--9\7---7---5---5---5/7---7-|
A|--00----00----00---00---00--00--00---00---|
E|------------------------------------------|

E|------------------------------------------|
B|------------------------------------------|
G|--------------------------4---5---5/7---7-|
D|----9/10--10\9--9\7---7---5---5---5/7---7-|
A|--00----00----00---00---00--00--00---00---|
E|------------------------------------------|

E|---------------------------------------------|
B|---------------------------------------------|
G|-----------------------------6---7---7/9---9-|
D|----11/12--12\11--11\9---9---7---7---7/9---9-|
A|--00-----00-----00----00---00--00--00---00---|
E|---------------------------------------------|

E|------------------------------------------|
B|------------------------------------------|
G|--------------------------4---5---5/7---7-|
D|----9/10--10\9--9\7---7---5---5---5/7---7-|
A|--00----00----00---00---00--00--00---00-0-|
E|------------------------------------------|

Main Theme:
E|----------------------------------------|
B|----------------------------------------|
G|--------11-11/12--\11-------------------|
D|--12h14---------------14--12--14~~~~~~\-|
A|----------------------------------------|
E|----------------------------------------|

E|----------------------------------------------------|
B|------------------------------12--(13)(12)-(13)(12)-|
G|--------11-11/12--\11-------------------------------|
D|--12h14---------------14--12------------------------|
A|----------------------------------------------------|
E|----------------------------------------------------|

E|-------------------------------------|
B|-------------------------------------|
G|-------------------------------------|
D|--12h14-x-14/16-14\12-10--12\9--10\7-|
A|-------------------------------------|
E|-------------------------------------|

E|-------------------------------|
B|-------------------------------|
G|-------------------------------|
D|-------------------------------|
A|--7-7-9-9/10\9-7-5-7----(8)(7)-|
E|-------------------------------|

E|--12-12-17-12--17----17----|
B|------------------15----12-|
G|---------------------------|
D|---------------------------|
A|---------------------------|
E|---------------------------|

E|--17(18)(17)(18)(17)(18)----14(15)(14)-12--------|
B|-------------------------15----------------------|
G|-------------------------------------------9\7-9-|
D|-------------------------------------------------|
A|-------------------------------------------------|
E|-------------------------------------------------|

E|--12-12-17-12--17----17----------------|
B|------------------15----12----15----12-|
G|---------------------------------14----|
D|---------------------------------------|
A|---------------------------------------|
E|---------------------------------------|

E|-------------------14-------------17-|
B|--/12-12-14-15-17------17\15-17------|
G|-------------------------------------|
D|-------------------------------------|
A|-------------------------------------|
E|-------------------------------------|

Solo: (couldnt do it, too fast to tab...could take a few months to tab it :P)

Main Theme:
E|----------------------------------------|
B|----------------------------------------|
G|--------11-11/12--\11-------------------|
D|--12h14---------------14--12--14~~~~~~\-|
A|----------------------------------------|
E|----------------------------------------|

E|----------------------------------------------------|
B|------------------------------12--(13)(12)-(13)(12)-|
G|--------11-11/12--\11-------------------------------|
D|--12h14---------------14--12------------------------|
A|----------------------------------------------------|
E|----------------------------------------------------|

E|-------------------------------------|
B|-------------------------------------|
G|-------------------------------------|
D|--12h14-x-14/16-14\12-10--12\9--10\7-|
A|-------------------------------------|
E|-------------------------------------|

E|-------------------------------|
B|-------------------------------|
G|-------------------------------|
D|-------------------------------|
A|--7-7-9-9/10\9-7-5-7----(8)(7)-|
E|-------------------------------|

E|--12-12-17-12--17----17----|
B|------------------15----12-|
G|---------------------------|
D|---------------------------|
A|---------------------------|
E|---------------------------|

E|--17(18)(17)(18)(17)(18)----14(15)(14)-12--------|
B|-------------------------15----------------------|
G|-------------------------------------------9\7-9-|
D|-------------------------------------------------|
A|-------------------------------------------------|
E|-------------------------------------------------|

E|--12-12-17-12--17----17----------------|
B|------------------15----12----15----12-|
G|---------------------------------14----|
D|---------------------------------------|
A|---------------------------------------|
E|---------------------------------------|

E|-------------------14-------------17-|
B|--/12-12-14-15-17------17\15-17------|
G|-------------------------------------|
D|-------------------------------------|
A|-------------------------------------|
E|-------------------------------------|

Solo 2:
E|-17(18)(17)-14------------------------------------------------------------|
B|---------------17(18)(17)-14----------------------------------------------|
G|-----------------------------16(17)(16)-14--------------------------------|
D|-------------------------------------------16(17)(16)-14------------------|
A|---------------------------------------------------------16(17)(16)-14-14-|
E|--------------------------------------------------------------------------|

E|--------------------------------------------------------------------------|
B|--------------------------------------------------------------------------|
G|--------------------------------------------------------------------------|
D|--------------------------------------------------------------------------|
A|-16-14-12---14-12-10---12-10-9---7--7-9-10-10/12---10---12/--14---16/--17-|
E|--------------------------------------------------------------------------|

E|-------------------|
B|-------------------|
G|-------------------|
D|-------------------|
A|-19-17h19p17\16\14-|
E|-------------------|

End Of Solo 2:
E|--12-12-17-12--17----17----------------|
B|------------------15----12----15----12-|
G|---------------------------------14----|
D|---------------------------------------|
A|---------------------------------------|
E|---------------------------------------|

E|-------------------14-------------17-|
B|--/12-12-14-15-17------17\15-17------|
G|-------------------------------------|
D|-------------------------------------|
A|-------------------------------------|
E|-------------------------------------|

E|--19(20)(19)-17---19---21---22-|
B|-------------------------------|
G|-------------------------------|
D|-------------------------------|
A|-------------------------------|
E|-------------------------------|

Outro:
E|-------------------------------------------------------|
B|-------------------------------------------------------|
G|-------------------------------------------------------|
D|--------------------------------11/12--12\11--11\9---9-|
A|--00-9/10-00-10\9-00-9\7-00-7-00-----00-----00----00---|
E|-------------------------------------------------------|

E|--------------------------------------------------------------------------|
B|--------------------------------------------------------------------------|
G|--------------------------------------------------------------------------|
D|------------------------------------------------------------------------2-|
A|--00-9/10-00-10\9-00-9\7-00-7\5--0-0-5/7-0--0--5\3--0---0--2p0--0----0--0-|
E|--------------------------------------------------------------------------|
Добавлено: 03.08.2013
Другие материалы по этой песне:

Страница создана 14.03.2012
http://primanota.ru/joe-satriani/a-train-of-angels-chords.htm
Привет, Гость.
Предлагаем пройти революционный курс по гитаре.
Подарок от PrimaNota.Ru, забирай!