PrimaNota.ru - самый крупный в мире бесплатный архив песенных текстов, аккордов, табулатур и нот


Joe Bonamassa - Under The Radar - таба, видео

Регистрация Запомнить меня
Войти через:  Facebook Google Twitter Vk Yandex Mail.ru

Joe Bonamassa - Under The Radar - таба, видео

Печатать
Просмотров: 82
Tuning: Drop D = DADGBE

Sorry in advance! I could only tab a few parts and I just found basis tones, not all complete chords!

I love this song, but I am a beginner, that's why my tab is so poor.

Hope you could help to find out the rest or corrections! 


INTRO 

e|--------------------------|
b|--------------------------|
g|--------------------------|
d|--------------------------|
a|--5--5--7--7--3--3--5--5--|
d|--------------------------|
    D     E     C     D



VERSE starting 0:15

e|-----------3--------|
b|---3---1---1--------|
g|---2---0---0--------|
d|---0---2---2---3----|
a|-------3---3---3----|
d|---------------3----|
     D   C       F



BREAK starting 0:29

e|----------------------|
b|----------------------|
g|----------------------|
d|--3--0--5--3----------|
a|--3--0--5--3----------|
d|--3--0--5--3---3h5p3--|
    F  D  G  F   

Добавлено: 21.07.2015
Другие материалы по этой песне:
  • Аккорды и текст

Страница создана 21.07.2015
http://primanota.ru/joe-bonamassa/under-radar-chords.htm
Привет, Гость.
Предлагаем пройти революционный курс по гитаре.
Подарок от PrimaNota.Ru, забирай!