PrimaNota.ru - самый крупный в мире бесплатный архив песенных текстов, аккордов, табулатур и нот


Joe Bonamassa - Your Funeral My Trial - бас-таба, видео

Регистрация Запомнить меня
Войти через:  Facebook Google Twitter Vk Yandex Mail.ru

Joe Bonamassa - Your Funeral My Trial - бас-таба, видео

Печатать
Просмотров: 103
Joe Bonamassa
Your Funeral my Trial 

(live at the RAH London - 2009)
Feat. Paul Jones (Harmonica)

Bass Tabs

Bassist: Carmine Rojas


Tuning : EADG
Tempo: 126 bpm 
Key: A+


Intro: 00:03
G|-----------||-----------||-----------||-----------|-
D|---------5-||---------5-||---------5-||---------5-|-
A|---5-5-8---||---5-5-8---||---5-5-8---||---5-5-8---|-
E|/6---------||56---------||56---------||56---------|-

Verse1: 00:14
G|-----------||-----------||---------------------|-
D|---------5-||---------5-||--------5--8-6-5-----|-
A|---5-5-8---||---5-5-8---||---5-8-----------8---|-
E|/6---------||56---------||56-------------------|-
Come home to your daddy, come explain yourself to me
You and I are gonna start a family

G|---------5-||---------5-||---------------------|-
D|---5-5-8---||---5-5-8---||--------5--8-6-5-----|-
A|56---------||56---------||---5-8-----------8---|-
E|-----------||-----------||56-------------------|-
oh, I'm beggin' you baby, cut out that off the wall jive

G|----------7||---------5-||---------------------|-
D|---7-7-10--||---5-5-8---||--------5-8-5--------|-
A|78---------||56---------||---5-8---------8g----|-
E|-----------||-----------||56-------------------|-
Coz if you can't treat me no better, 
(it gotta be) your funeral and my trial

Verse2: 00:36
G|-----------||-----------||---------------------|-
D|---------5-||---------5-||--------5--8-6-5-----|-
A|---5-5-8---||---5-5-8---||---5-8-----------8---|-
E|/6---------||56---------||56-------------------|-
Yes, I love my baby, its as sharp as a knife
You're the only one I have desire

G|---------5-||---------5-||---------------------|-
D|---5-5-8---||---5-5-8---||--------5--8-6-5-----|-
A|56---------||56---------||---5-8-----------8---|-
E|-----------||-----------||56-------------------|-
oh I'm beggin' you baby, cut out that off the wall jive

G|----------7||---------5-||---------------------|-
D|---7-7-10--||---5-5-8---||--------5-8-5--------|-
A|78---------||56---------||---5-8---------8g----|-
E|-----------||-----------||56-------------------|-
Coz if you can't treat me no better, 
(it gotta be) your funeral and my trial


               
Instrumental(1): 00:59 (Harmonica playing) Play X2
G|-----------||-----------||---------------------|-
D|---------5-||---------5-||--------5-8-86-65-5--|-
A|---5-5-8---||---5-5-8---||---5-8-------------8-|-
E|56---------||56---------||56-------------------|-

G|---------5-||---------5-||---------------------|-
D|---5-5-8---||---5-5-8---||--------5--8-6-5-----|-
A|56---------||56---------||---5-8-----------8---|-
E|-----------||-----------||56-------------------|-

G|----------7||---------5-||---------------------|-
D|---7-7-10--||---5-5-8---||--------5-8-5--------|-
A|78---------||56---------||---5-8---------8g----|-
E|-----------||-----------||56-------------------|-

Verse3: 01:44
G|-----------||-----------||---------------------|-
D|---------5-||---------5-||--------5--8-6-5-----|-
A|---5-5-8---||---5-5-8---||---5-8-----------8---|-
E|/6---------||56---------||56-------------------|-
Yes, I love my baby, its as sharp as a knife
You're the only one I have desire

G|---------5-||---------5-||---------------------|-
D|---5-5-8---||---5-5-8---||--------5--8-6-5-----|-
A|56---------||56---------||---5-8-----------8---|-
E|-----------||-----------||56-------------------|-
oh I'm beggin' you baby, cut out that off the wall jive

G|----------7||---------5-||---------------------|-
D|---7-7-10--||---5-5-8---||--------5-8-5--------|-
A|78---------||56---------||---5-8---------8g----|-
E|-----------||-----------||56-------------------|-
Coz if you can't treat me no better, 
(it gotta be) your funeral and my trial


Instrumental(2): 02:07 (Harmonica playing) Play X2
G|-----------||-----------||---------------------|-
D|---------5-||---------5-||--------5-8-86-65-5--|-
A|---5-5-8---||---5-5-8---||---5-8-------------8-|-
E|56---------||56---------||56-------------------|-

G|---------5-||---------5-||---------------------|-
D|---5-5-8---||---5-5-8---||--------5--8-6-5-----|-
A|56---------||56---------||---5-8-----------8---|-
E|-----------||-----------||56-------------------|-

G|----------7||---------5-||---------------------|-
D|---7-7-10--||---5-5-8---||--------5-8-5--------|-
A|78---------||56---------||---5-8---------8g----|-
E|-----------||-----------||56----------------6.-|-


Outro: 02:50 (Harmonica / Guitar)


End: 04:05



Tablature Legend ----------------  
| S  slap 
| P  pop 
| x  mute note 
| .  Full stop
| /  slide up 
| \  slide down 
| h  hammer-on 
| p  pull-off 
| g  grace note 
| ~  vibrato 
| ^  brush up



A+ (Ref scale)
G|------------------||------------------|-
D|-------5-8-5------||-------5-8-5------|-
A|---5-8-------8-5--||---5-8-------8-5--|- 
E|-6----------------||-6----------------|-

G|-------5-8-5------||-------5-8-5------|-
D|---5-8-------8-5--||---5-8-------8-5--|- 
A|-6----------------||-6----------------|-
E|------------------||------------------|-

G|------------------||------------------|-
D|-------5-8-5------||-------5-8-5------|-
A|---5-8-------8-5--||---5-8-------8-5--|- 
E|-6----------------||-6----------------|-

G|-------7-10-7-----||-------7-10-7-----|-
D|---7-10------10-7-||---7-10------10-7-|-
A|-8----------------||-8----------------|- 
E|------------------||------------------|-

G|-------5-8-5------||-------5-8-5------|-
D|---5-8-------8-5--||---5-8-------8-5--|- 
A|-6----------------||-6----------------|-
E|------------------||------------------|-

G|------------------||------------------|-
D|-------5-8-5------||-------5-8-5------|-
A|---5-8-------8-5--||---5-8-------8-5--|- 
E|-6----------------||-6----------------|-
Добавлено: 13.11.2015
Другие материалы по этой песне:
  • Аккорды и текст

Страница создана 13.11.2015
http://primanota.ru/joe-bonamassa/your-funeral-my-trial-chords.htm
Привет, Гость.
Предлагаем пройти революционный курс по гитаре.
Подарок от PrimaNota.Ru, забирай!