PrimaNota.ru - самый крупный в мире бесплатный архив песенных текстов, аккордов, табулатур и нот


Joe Bonamassa - Futher Up On The Road - бас-таба, видео

Регистрация Запомнить меня
Войти через:  Facebook Google Twitter Vk Yandex Mail.ru

Joe Bonamassa - Futher Up On The Road - бас-таба, видео

Печатать
Просмотров: 93
Joe Bonamassa 
   (feat Eric Clapton)

Further on up the road
(live at the RAH London - 2009)

Bass Tabs

Bassist: Carmine Rojas

Tuning : EADG
Tempo: 133 bpm 
Key: G

Intro: 00:01   
G|-----------||-----------||-----------||-----------|-
D|-----------||-----------||-----------||-----------|-
A|-----------||-----------||-----------||-----------|-
E|-3-33-33-33||33-33-33-33||33-33-33-33||33-33-33-33|-

G|-----------||-----------||-----------||-----------|-
D|-----------||-----------||-----------||-----------|-
A|33-33-33-33||33-33-33-33||-----------||-----------|-
E|-----------||-----------||33-33-33-33||33-33-33-33|-

G|-----------||-----------||-----------||-----------|-
D|-----------||-----------||-----------||-----------|-
A|55-55-55-55||33-33-33-33||-----------||-----------|-
E|-----------||-----------||33-33-33-33||-3.--------|-
                            

Verse1: 00:23
G|-----------||-----------||-----------||-----------|-
D|---------5-||---------5-||---------5-||---------5-|-
A|---2-2-5---||---2-2-5---||---2-2-5---||---2-2-5---|-
E|-3---------||-3---------||-3---------||-3---------|-
Further on up the road someone's gonna hurt you like you hurt me
G|---------5-||---------5-||-----------||-----------|-
D|---2-2-5---||---2-2-5---||---------5-||---------5-|-
A|-3---------||-3---------||---2-2-5---||---2-2-5---|-
E|-----------||-----------||-3---------||-3---------|-
Further on up the road someone's gonna hurt you like you hurt me
G|---------7-||---------5-||-----------||-----------||
D|---4-4-7---||---2-2-5---||---------5-||-----------||
A|-5---------||-3---------||---2-2-5---||-----------||
E|-----------||-----------||-3---------||-3.--------||
Further on up the road, baby, just you wait and see                 


Verse2: 00:43
G|-----------||-----------||-----------||-----------|-
D|---------5-||---------5-||---------5-||---------5-|-
A|---2-2-5---||---2-2-5---||---2-2-5---||---2-2-5---|-
E|-3---------||-3---------||-3---------||-3---------|-
You gotta reap just what you sow; that old saying is true
G|---------5-||---------5-||-----------||-----------|-
D|---2-2-5---||---2-2-5---||---------5-||---------5-|-
A|-3---------||-3---------||---2-2-5---||---2-2-5---|-
E|-----------||-----------||-3---------||-3---------|-
You gotta reap just what you sow; that old saying is true
G|---------7-||---------5-||-----------||-----------||
D|---4-4-7---||---2-2-5---||---------5-||-----------||
A|-5---------||-3---------||---2-2-5---||-----------||
E|-----------||-----------||-3---------||-3.--------||
Just like you mistreat someone, someone's gonna mistreat you


Verse3: 01:06
G|-----------||-----------||-----------||-----------|-
D|---------5-||---------5-||---------5-||---------5-|-
A|---2-2-5---||---2-2-5---||---2-2-5---||---2-2-5---|-
E|-3---------||-3---------||-3---------||-3---------|-
You been laughing, pretty baby, someday you're gonna be crying
G|---------5-||---------5-||-----------||-----------|-
D|---2-2-5---||---2-2-5---||---------5-||---------5-|-
A|-3---------||-3---------||---2-2-5---||---2-2-5---|-
E|-----------||-----------||-3---------||-3---------|-
You been laughing, pretty baby, someday you're gonna be crying
G|---------7-||---------5-||-----------||-----------||
D|---4-4-7---||---2-2-5---||---------5-||-----------||
A|-5---------||-3---------||---2-2-5---||-----------||
E|-----------||-----------||-3---------||-3.--------||
Further on up the road you'll find out I wasn't lying


Instrumental: 01:29 (Play x2)
G|-----------||-----------||------------------------|-
D|---------2-||---------2-||---------2--5-3-2-------|-
A|---2-2-5---||---2-2-5---||---2-2-5----------5-----|-
E|-3---------||-3---------||-3----------------------|-

G|---------2-||---------2-||------------------------|-
D|---2-2-5---||---2-2-5---||---------2--5-3-2-------|-
A|-3---------||-3---------||---2-2-5----------5-----|-
E|-----------||-----------||-3----------------------|-

G|---------4-||---------2-||-----------||-----------||
D|---4-4-7---||---2-2-5---||---------2-||-----------||
A|-5---------||-3---------||---2-2-5---||-----------||
E|-----------||-----------||-3---------||-3.--------||


Verse4: 02:10
G|-----------||-----------||-----------||-----------|-
D|---------5-||---------5-||---------5-||---------5-|-
A|---2-2-5---||---2-2-5---||---2-2-5---||---2-2-5---|-
E|-3---------||-3---------||-3---------||-3---------|-
Further on up the road someone's gonna hurt you like you hurt me
G|---------5-||---------5-||-----------||-----------|-
D|---2-2-5---||---2-2-5---||---------5-||---------5-|-
A|-3---------||-3---------||---2-2-5---||---2-2-5---|-
E|-----------||-----------||-3---------||-3---------|-
Further on up the road someone's gonna hurt you like you hurt me
G|---------7-||---------5-||-----------||-----------||
D|---4-4-7---||---2-2-5---||---------5-||-----------||
A|-5---------||-3---------||---2-2-5---||-----------||
E|-----------||-----------||-3---------||-3.--------||
Further on up the road, baby, just you wait and see


Verse5: 02:32
G|-----------||-----------||-----------||-----------|-
D|---------5-||---------5-||---------5-||---------5-|-
A|---2-2-5---||---2-2-5---||---2-2-5---||---2-2-5---|-
E|-3---------||-3---------||-3---------||-3---------|-
You gotta reap just what you sow; that old saying is true
G|---------5-||---------5-||-----------||-----------|-
D|---2-2-5---||---2-2-5---||---------5-||---------5-|-
A|-3---------||-3---------||---2-2-5---||---2-2-5---|-
E|-----------||-----------||-3---------||-3---------|-
You gotta reap just what you sow; that old saying is true
G|---------7-||---------5-||-----------||-----------||
D|---4-4-7---||---2-2-5---||---------5-||-----------||
A|-5---------||-3---------||---2-2-5---||-----------||
E|-----------||-----------||-3---------||-3.--------||
Just like you mistreat someone, someone's gonna mistreat you


Instrumental2: 02:54 (Play x5)
G|-----------||-----------||------------------------|-
D|---------2-||---------2-||---------2--5-3-2-------|-
A|---2-2-5---||---2-2-5---||---2-2-5----------5-----|-
E|-3---------||-3---------||-3----------------------|-

G|---------2-||---------2-||------------------------|-
D|---2-2-5---||---2-2-5---||---------2--5-3-2-------|-
A|-3---------||-3---------||---2-2-5----------5-----|-
E|-----------||-----------||-3----------------------|-

G|---------4-||---------2-||-----------||-----------||
D|---4-4-7---||---2-2-5---||---------2-||-----------||
A|-5---------||-3---------||---2-2-5---||-----------||
E|-----------||-----------||-3---------||-3.--------||
     
Outro:                       
G|-----------||-----------||------------------------|-
D|---------2-||---------2-||---------2--5-3-2-------|-
A|---2-2-5---||---2-2-5---||---2-2-5----------5-----|-
E|-3---------||-3---------||-3----------------------|-

G|---------2-||---------2-||------------------------|-
D|---2-2-5---||---2-2-5---||---------2--5-3-2-------|-
A|-3---------||-3---------||---2-2-5----------5-----|-
E|-----------||-----------||-3----------------------|-

G|---------7-||---------5-||-----------||-----------||
D|---4-4-7---||---2-2-5---||---------5-||-----------||
A|45---------||23---------||---2--5----||-----------||
E|-----------||-----------||-3---------||-3~~~------||

End: 05:45



Tablature Legend ----------------  
| S  slap 
| P  pop 
| x  mute note 
| /  slide up 
| \  slide down 
| h  hammer-on 
| p  pull-off 
| g  grace note 
| ~  vibrato 
| ^  brush up
Добавлено: 13.11.2015
Другие материалы по этой песне:
  • Аккорды и текст

Страница создана 13.11.2015
http://primanota.ru/joe-bonamassa/futher-up-on-road-chords.htm
Привет, Гость.
Предлагаем пройти революционный курс по гитаре.
Подарок от PrimaNota.Ru, забирай!