PrimaNota.ru - самый крупный в мире бесплатный архив песенных текстов, аккордов, табулатур и нот


Joan Jett - Backlash - аккорды и текст, видео

Регистрация Запомнить меня
Войти через:  Facebook Google Twitter Vk Yandex Mail.ru

Joan Jett - Backlash - аккорды и текст, видео

Печатать
Просмотров: 126
Backlash
Joan Jett
SONG:   BACKLASH
ARTIST: JOAN JETT AND THE BLACKHEARTS
TAB BY: DON CZARSKI
EMAIL:  GUITARZAN7@HOTMAIL.COM

                        BACKLASH
              JOAN JETT AND THE BLACKHEARTS

INTRO: 
 
    PLAY THIS 3x's  | THEN 4th TIME
           B  A  E             B F#
E ------------------|---------------|
B ------------------|---------------|
G ------------------|---------------|
D ------------------|---------------|
A -----6------------|-----6---------|
E -7-9---7----------|-7-9---7-------|


VERSE:
E              F#
I had it made, I never strayed
 B                  E
From a course that somebody else laid
E                    F#
I clenched my fists, I never miss
 B              E
Take a swing I just can't resist 
 F#
One nite (one nite)
 F#               A          E
you find that ya can't turn back
         Eb             G#
So it's goodbye to the past
        B
'Cause here it comes, here it comes, feel it comin'

 F#                       B
Backlash                  
          E -----------    
          B -----------
          G -----------
          D -----------
          A ------6----
          E --7-9---7--
 F#                       B
Backlash                  
          E -----------    
          B -----------
          G -----------
          D -----------
          A ------6----
          E --7-9---7--
 F#                       B
Backlash                  
          E -----------    
          B -----------
          G -----------
          D -----------
          A ------6----
          E --7-9---7--

    G#          C#               F#       B
Oh yea, its too bad, now it's a backlash 


VERSE:
 E                    F#
Your time ain't long you don't belong
 B                E
Maybe so but you hope that they're wrong
 E                   F#
Thin skin gets thick it happens quick
 B                    E
Like a baby turn her very first trick
 F# 
Hold tight (hold tight) 
 F#                 A            E
Hold tight for the ride of your life
          Eb             G#
And the lovers go by so fast
 B
Here it comes, here it comes, feel it comin'

 F#                       B
Backlash                  
          E -----------    
          B -----------
          G -----------
          D -----------
          A ------6----
          E --7-9---7--

 F#                       B
Backlash                  
          E -----------    
          B -----------
          G -----------
          D -----------
          A ------6----
          E --7-9---7--

 F#                       B
Backlash                  
          E -----------    
          B -----------
          G -----------
          D -----------
          A ------6----
          E --7-9---7--

    G#           C#    F#       B
Oh yea, it's too bad, backlash


BREAK:
G#  Bb       F#(Barre at 2nd FRET)
    Used to love me 
G#  Bb       F#(Barre at 2nd FRET)
    Used to care (do you care?) 
G#  Bb       F#(Barre at 2nd FRET)
    Used to want me

 E                                          F#
Here it comes, here it comes I guess thats fair

SHORT SOLO:

GUITAR 1:
F#, B - 4x's 

GUITAR 2:
  F#(Barre at 2nd FRET)    then RIFF
                        E --------------
                        B -----4--------                       
                        G -4-6---4-6-4--
                        D --------------
                        A --------------
                        E --------------

    F#          B
Now,   do you love me,
F#        B
  Do you care, 
F#       B
 Do you love me
F#
One nite (one nite)
F#
We find (we find)
F#
We're outta, (we're out)
F#
Outta time
 E
Here it comes, here it comes, feel it coming from
 A
Here it comes, here it comes, feel it coming from 
 B
Here it comes, here it comes, here it  c'mon
 
OUTRO:   
                          B
E -----------   Backlash 
B -----------
G -----------
D -----------
A ------6----
E --7-9---7--

                          B
E -----------   Backlash 
B -----------
G -----------
D -----------
A ------6----
E --7-9---7--

                          B
E -----------   Backlash 
B -----------
G -----------
D -----------
A ------6----
E --7-9---7--

                          B
E -----------   Backlash 
B -----------
G -----------
D -----------
A ------6----
E --7-9---7--

FADE OUT:
Добавлено: 15.06.2013
Другие материалы по этой песне:
  • Аккорды и текст

Страница создана 15.06.2013
http://primanota.ru/joan-jett/backlash-chords.htm
Привет, Гость.
Предлагаем пройти революционный курс по гитаре.
Подарок от PrimaNota.Ru, забирай!