PrimaNota.ru - самый крупный в мире бесплатный архив песенных текстов, аккордов, табулатур и нот


Jimmy Page - Dazed And Confused - аккорды и текст, таба, видео

Регистрация Запомнить меня
Войти через:  Facebook Google Twitter Vk Yandex Mail.ru

Jimmy Page - Dazed And Confused - аккорды и текст, таба, видео

Печатать
Просмотров: 224
Авторы: Jake Holmes
Авторы музыки: Jimmy Page
Авторы текста: Jimmy Page, Robert Plant
Dazed And Confused
Jimmy Page
DAZED AND CONFUSED BY JIMMY PAGE

Hi, world
Does somebody like solo? Try this! the solo part of dazed and confused
by page. Its realy a challenge, isn't?
 b  :bend
 r  :release b
 X  :rest
 / :slide
 !9!:Harmonic
Just hear to the record to get the right timing and the feeling for special
notes(above). If there are any mistakes, (i dont think so 'cos i got it
printed) please forgive me!
!!!One request:!!!
Could someone tab out for me the solo of  --Since ive been loving you-- ?
please email to me, yeah! Thanx !

  hong@aix520.informatik.uni-leipzig.de

----------------------------------------------------------------------------

e:----------------------------------------------------------1512----1512---|
B:---12--12-1512--------12-1512----------12-12-1512-X-12-------12-------12|
G:14b16------------14b16----------14-14b16-----------------------------------|
D:---------------------------------------------------------------------------|
A:---------------------------------------------------------------------------|
E:---------------------------------------------------------------------------|


e:1512---1512--1512------12-15b17-15-12----12-----------------------------|
B:------12-----12-----12-12-12-------------15-15-1512-----------------------|
G:-----------------------------------------------------1412----12-14-12-14--|
D:-----------------------------------------------------------14--------------|
A:---------------------------------------------------------------------------|
E:---------------------------------------------------------------------------|


e:---------------------------------------------------------------------------|
B:--------15-----------------------------------------------------------------|
G:12-14b16----161412-1412---------------------------------!9!b!11!--9b11--|
D:--------------------------14-12-14-12/1412----12/1412--0-----------------|
A:--------------------------------------------14-----------------------------|
E:---------------------------------------------------------------------------|


e:---------------------------------------------------------------------------|
B:---------------------------------------------------------------------------|
G:---7-9-7-7-76-65-6-76-4-643-4-2-2-4-2---0-0-0b2--0-0b2-0-0b2-0-0b2|
D:---------------------------------------------------------------------------|
A:---------------------------------------------------------------------------|
E:---------------------------------------------------------------------------|


e:---------------------------------------------------------1512-15-15b12----|
B:------------------------------------------------------12-------12-12----12-|
G:--0-0-0b4-0-0b2--0-0b4b4-0-0b2-0-0b4-0-0b3-0-0-b4r0------------------------|
D:---------------------------------------------------------------------------|
A:---------------------------------------------------------------------------|
E:---------------------------------------------------------------------------|


e:1512----1512----15--1512-----15--15b17-15-17---15b17-15b17-15-12-----12-|
B:------12-------12------------12-------------------------------------15-----|
G:---------------------------------------------------------------------------|
D:---------------------------------------------------------------------------|
A:---------------------------------------------------------------------------|
E:---------------------------------------------------------------------------|


e:---------------------------------------------------------------------------|
B:1512--------------------------15------------------------------------------|
G:-------1412----12-14-12-14/16----161412-1412---------------------------|
D:-------------14----------------------------------14-12/1412----12-12------|
A:-------------------------------------------------------------14----12/1412|
E:---------------------------------------------------------------------------|


e:--------------------------------------------------------------------19b21--|
B:----------------------------17b20---17b19-17b20--17b19-15-15--17-17--------|
G:---------------------------------------------------------------------------|
D:---------------------------------------------------------------------------|
A:/1412---------10--12-10---------------------------------------------------|
E:------------12-------------------------------------------------------------|


e:1918--17------------------------------------------------------------------|
B:----------20-2017----17-20--17/2017-----17-20-17/2017-----17-20-17/2017|
G:-------------------19------------------19-----------------19---------------|
D:---------------------------------------------------------------------------|
A:---------------------------------------------------------------------------|
E:---------------------------------------------------------------------------|


e:---------------------------------------------------------------------------|
B:----17-20-17/2017----17-20-20b22--19b21-21b22-19b20-19b20b22--------20b22b|
G:-19----------------19------------------------------------------------------|
D:----------------------------------------------------------------0-0--------|
A:---------------------------------------------------------------------------|
E:---------------------------------------------------------------------------|


e:-------------------------------------19b22r19----------19b22r19------------|
B:24r2017--17-17--20b24r20-17-17-17-17----------17-17-17----------17-17-17--|
G:---------------------------------------------------------------------------|
D:---------------------------------------------------------------------------|
A:---------------------------------------------------------------------------|
E:---------------------------------------------------------------------------|


e:---------------------------------------------------------------------------|
B:---17-20b23r20--17-17----17b20r17-15-15--15b17r15--------------------------|
G:----------------------0--17-----------------------12-12----12b14r12-9-9--9-|
D:---------------------------------------------------------------------------|
A:---------------------------------------------------------------------------|
E:---------------------------------------------------------------------------|


e:---------------------------------------------------------------------------|
B:-----------------------------------------------------42-------------!4!-|
G:9b11-9b11r9--7--4b6r4--4--42-2--42-2--42-2--42-2--2--4--2---4--|
D:-------------0-------------------------------------------------------------|
A:---------------------------------------------------------------------------|
E:---------------------------------------------------------------------------|


e:---------------------------------------|
B:----2/42----------------------------|
G:----2/42--0--2/2/2--------------|
D:--------------------------42--------|
A:--------------------------------42--|
E:---------------------------------------|
Добавлено: 12.07.2012
Другие материалы по этой песне:
  • Аккорды и текст

Страница создана 03.05.2012
http://primanota.ru/jimmy-page/dazed-and-confused-chords.htm
Привет, Гость.
Предлагаем пройти революционный курс по гитаре.
Подарок от PrimaNota.Ru, забирай!