PrimaNota.ru - самый крупный в мире бесплатный архив песенных текстов, аккордов, табулатур и нот


Jimmy Page - Ramble On - таба, видео

Регистрация Запомнить меня
Войти через:  Facebook Google Twitter Vk Yandex Mail.ru

Jimmy Page - Ramble On - таба, видео

Печатать
Просмотров: 263
Авторы музыки: Jimmy Page, Robert Plant

-------------------------------------------------------------------------------
                             Ramble On - Jimmy Page
-------------------------------------------------------------------------------
Tabbed by: Tyler Sowards
Email: xclairityx@live.com

Tuning: Standard

Watch this video for the rhythm and progression:
http://www.youtube.com/watch?v=aqI2QvsDv5k

This is from the movie 'It Might Get Loud'

  (x3)    (x3)         (x3)      (x3)
e|-9---10--10---X---X---X---X-----X-------X------------------------------|
B|-9---7---7----3-/-5---5---5-----5b6-----5------------------------------|
G|-9---7---7----4-/-6---6---6h7---7b8-----7p6-----REPEAT x7--------------|
D|-9---7---7----5-/-7---7---7-----7b8-----7------------------------------|
A|-7---7---9----0---0---0---0-----0-------0------------------------------|
E|-X---X---X----X---X---X---X-----X-------X------------------------------|

e|--0-------------------------------------------------------------------------|
B|--0-------------------------------------------------------------------------|
G|--11b12b11--9--9h11b12---6b7-4--4--2--1-------REPEAT x2---------------------|
D|--0-------------------------------------------------------------------------|
A|--0-------------------------------------------------------------------------|
E|--X-------------------------------------------------------------------------|

e|--X---X---X---X-X-X---X---X---X-------------------------------------------------|
B|--7---5---7---X-X-X---5---3---3-------------------------------------------------|
G|--9---7---9---X-X-X---6---4---2-------REPEAT x4---------------------------------|
D|--9---7---9---X-X-X---7---5---4-------------------------------------------------|
A|--7---5---7---X-X-X---0---0---0-------------------------------------------------|
E|--X---X---X---X-X-X---X---X---X-------------------------------------------------|
Добавлено: 18.06.2012
Другие материалы по этой песне:
  • Аккорды и текст

Страница создана 18.06.2012
http://primanota.ru/jimmy-page/ramble-on-chords.htm
Привет, Гость.
Предлагаем пройти революционный курс по гитаре.
Подарок от PrimaNota.Ru, забирай!