PrimaNota.ru - самый крупный в мире бесплатный архив песенных текстов, аккордов, табулатур и нот


Jimmy Page - Prelude - таба, видео

Регистрация Запомнить меня
Войти через:  Facebook Google Twitter Vk Yandex Mail.ru

Jimmy Page - Prelude - таба, видео

Печатать
Просмотров: 432
Уроки эстрадного вокала в Санкт-Петербурге

So this is it, note for note. Beautiful rendition of a beautiful piece.



E{|--7--------------|------------------|------------------|-----------------|
B{|---x------10b12v-|--11b13---10b12v--|--11b13---10b12v--|--11b13--10b12v--|
G{|----7------------|------------------|------------------|-----------------|
D{|-----9-----------|------------------|------------------|-----------------|
A{|-----------------|------------------|------------------|-----------------|
E{|-----------------|------------------|------------------|-----------------|


|----------------|---------------------------------|----------|------------|
|--11--10b11r10--|--10b12--10b12--10b12--10b12r10--|-10b12r10-|--10b12r10--|
|----------------|---------------------------------|----------|------------|
|----------------|---------------------------------|----------|------------|
|----------------|---------------------------------|----------|------------|
|----------------|---------------------------------|----------|------------|


|--------7-----------------|--------------------|--------------------|
|--8b10-----13b15--15r13v--|-------8--7---------|--13b15--12h13p12v--|
|--------------------------|--7/9--------9--8v--|--------------------|
|--------------------------|--------------------|--------------------|
|--------------------------|--------------------|--------------------|
|--------------------------|--------------------|--------------------|

|----------|-----------------------------------------|-----------------|
|--8b10r8--|------------7----8--10--10p8p7--8b10r8v--|--10b12--10b12v--|
|----------|---------8-------------------------------|-----------------|
|----------|--10--9----------------------------------|-----------------|
|----------|-----------------------------------------|-----------------|
|----------|-----------------------------------------|-----------------|


|-----------------|-----------------|-----------|---------------------------|
|--11b13--10b12v--|--11b13--10b12v--|-(12)-10v--|--10--12--13p12p10--13b15--|
|-----------------|-----------------|-----------|---------------------------|
|-----------------|-----------------|-----------|---------------------------|
|-----------------|-----------------|-----------|---------------------------|
|-----------------|-----------------|-----------|---------------------------|

|------------|------------|
|--10b12r10--|--10b12r10--|
|------------|------------|
|------------|------------|
|------------|------------|
|------------|------------|

|--------7-----------------|--------------------|---------------------------|
|--8b10-----13b15r13-------|-------8--7---------|--8b10--8b10--8--8b10r8p7v-|
|--------------------------|--7/9--------9--8v--|---------------------------|
|--------------------------|--------------------|---------------------------|
|--------------------------|--------------------|---------------------------|
|--------------------------|--------------------|---------------------------|


|---------------------------|---------------------------------------------|
|--13b15--13b15--15r13p12v--|--12h15p12--15p12--15b17r15p13--15b17-17-17--|
|---------------------------|---------------------------------------------|
|---------------------------|---------------------------------------------|
|---------------------------|---------------------------------------------|
|---------------------------|---------------------------------------------|


|--13b15--12b14--12b14r12--|--13b15r13--12--|--15b17v--|
|--------------------------|----------------|----------|
|--------------------------|----------------|----------|
|--------------------------|----------------|----------|
|--------------------------|----------------|----------|
|--------------------------|----------------|----------|

Finale

|-------7--8--7---|--8p7---7----------------------------------------|
|-----x-----------|-----10---10p8p7---7-----------------------------|
|---7-------------|-----------------9---9p8---8---------------------|
|-9---------------|-------------------------10--10-9-7-10-9-7----9-7|
|-----------------|-------------------------------------------10----|
|-----------------|-------------------------------------------------|

|------|-----|------|-------|}
|------|-----|------|-------|}
|------|-----|------|-------|}
|------|-----|------|--7/9--|}
|--10--|--9--|--7v--|-------|}
|------|-----|------|-------|}
Coda:

|-------------|----------------|--------|
|-------8--7--|----------7--5--|--------|
|-------------|------(5)-------|--------|
|--7/9--------|--5/7-----------|--7/9v--|
|-------------|----------------|--------|
|-------------|----------------|--------|



Добавлено: 06.06.2012
Другие материалы по этой песне:
  • Аккорды и текст

Страница создана 06.06.2012
http://primanota.ru/jimmy-page/prelude-chords.htm
Привет, Гость.
Предлагаем пройти революционный курс по гитаре.
Подарок от PrimaNota.Ru, забирай!