PrimaNota.ru - самый крупный в мире бесплатный архив песенных текстов, аккордов, табулатур и нот


Jimi Hendrix - Purpel Haze - таба, видео

Регистрация Запомнить меня
Войти через:  Facebook Google Twitter Vk Yandex Mail.ru

Jimi Hendrix - Purpel Haze - таба, видео

Печатать
Просмотров: 134
key
/=slide up
\=slide down
b=bend
t=trill
h=hamer on
p=pull off
>=up stroke
<=down stroke
~~~~=verbratio
intro.

e|---------------------------------------------------------
b|---------------------------------------------------------
g|---------------------------------------------------------
d|-------7-----7-----7-----7-------------------------------
a|----6--6--6--6--6--6--6--6-------------------------------
E|----5-----5-----5-----5----------------------------------


e|----------------------------------------------------------
b|----------------------------------------------------------
g|----------------6-----------------------------------------
d|------------7---------------------------------------------
a|----7/--9----------7---5--0------5h--7--repeat-phrase-once
E|------------------------------0---------------------------


e|---------------------------------------------------------
b|---------------------------------------------------------
g|---------------------------------------------------------
d|-------5----7--7--7/--9---7--5-----5h--7-----------------
a|----7---------------------------7------------------------
E|---------------------------------------------------------


e|---------------------------------------------------------
b|---------------------------------------------------------
g|----------------------------7--7--7h--9--9---------------
d|-------5---7--7--7/--9---9-------------------------------
a|----7----------------------------------------------------
E|---------------------------------------------------------


verse.
             >  >  <          >  >  <          >  >  <          >  >  <
e|---------------------------------------------3--3--3----------5--5--5--
b|-----------8--8--8----------8--8--8----------6--6--6----------8--8--8--
g|-----------7--7--7----------7--7--7----------4--4--4----------6--6--6--
d|-----------6--6--6----------6--6--6----------3--3--3----------5--5--5--
a|-----------7--7--7----------7--7--7----------5--5--5----------7--7--7--repeat phrase x3
E|----0--0-------------0--0-------------3--3---3--3--3---5--5---5--5--5--

bridge 1.

e|---------------------------------------------------------
b|--------------------------8-----------8------------------
g|----11-9--7------------7------------7--------------------
d|----0--0--0-----7/--9---------7/--9----------------------
a|----9--7--5----------------------------------------------
E|---------------------------------------------------------
do verse again folowed by bridge 1 folowed by bridge 2.

bridge 2.

e|---------------------------------------------------------------
b|---------------12------------12--------------15------------15--
g|------------9-------------9--------------12------------12------
d|----9/--12--------9/--12--------12/--15---------12/--9---------
a|---------------------------------------------------------------
E|---------------------------------------------------------------


solo.

e|--------------------------------------------------------------
b|----12t-14--hold-for-4------12--------------------------------
g|------------------------14------14--13--14--11h-12p-11--9--7--
d|--------------------------------------------------------------
a|--------------------------------------------------------------
E|--------------------------------------------------------------


e|-----------------------------------------------------------------
b|-----------------------------------------------------------------
g|----7--9--7--6--7---7--9/--11--7--7t-9-hold for 2--7--9--7--6--7-
d|-----------------------------------------------------------------
a|-----------------------------------------------------------------
E|-----------------------------------------------------------------


do intro, verse and both bridges again before moving on to outro

outro

e|---------------------------------------------------------
b|----15~~~~~~~~~~~~~~~~~~~~~~~~~~~~~~~~~~~~~~~~~~~~~~~~~~~
g|---------------------------------------------------------
d|---------------------------------------------------------
a|---------------------------------------------------------
E|---------------------------------------------------------

keep repeating outro till end.
Добавлено: 23.07.2013
Другие материалы по этой песне:
  • Аккорды и текст

Страница создана 23.07.2013
http://primanota.ru/jimi-hendrix/purpel-haze-chords.htm
Привет, Гость.
Предлагаем пройти революционный курс по гитаре.
Подарок от PrimaNota.Ru, забирай!