PrimaNota.ru - самый крупный в мире бесплатный архив песенных текстов, аккордов, табулатур и нот


Jimi Hendrix - Foxy Lady - аккорды и текст, таба, бас-таба, видео

Регистрация Запомнить меня
Войти через:  Facebook Google Twitter Vk Yandex Mail.ru

Jimi Hendrix - Foxy Lady - аккорды и текст, таба, бас-таба, видео

Печатать
Просмотров: 790
Авторы музыки: Jimi Hendrix
Авторы текста: Jimi Hendrix
Foxy Lady
Jimi Hendrix
By Jimi Hendrix
		        Transcribed by Brian S.

I noticed i didnt see any solo for Foxy Lady out there.. so i sat
down and figured it out myself -- Listen to the Song for timing
please excuse me for any mistakes (Im not Jimi!!!)

Solo :

(1:44)    		  (1:46)
E--------------------------12b~~~~~~--12b--12-----------------------|
b-/14-------/14-------------------------------10~~~-----------------|
g-----14~~------/14-----------------------------------/9-/11~~~-11~-|
d--------------------16~--------------------------------------------|
a-------------------------------------------------------------------|
e-------------------------------------------------------------------|
           Here we come!                       Foxy!!

            (1:50)
e-------------------------------------------------------9-12b-12b~~~-|
b----------------------------------------------------12--------------|
g-9--2~~~-------h9--11b~~-11b--11~~--11p9----11b~~~-----------------|
d-----------9h11---------------------------11------------------------|
a--------------------------------------------------------------------|
e--------------------------------------------------------------------|

              (1:57)
e-12b-r12-p9--17b~~~~~-12~~~-12b-----9h12---9h12----9h12------------|
b---------------------------------12------12-----12-------12b~~~----|
g-------------------------------------------------------------------|
d-------------------------------------------------------------------|
a-------------------------------------------------------------------|
e-------------------------------------------------------------------|

 						 (2:04)
e-------------------------------------------------12b~~~~~----------|
b-12b-12b-12b~~~~-12b-r12p10----12p10----12p10----------------------|
g----------------------------12-------12-------12-------------------|
d-------------------------------------------------------------------|
a-------------------------------------------------------------------|
e-------------------------------------------------------------------|
						  Yeh!!
(2:05)
  F#               E		      F#	    E
e-2---2----2---2---0--0---------------2---2---2--2--0------------------|
b-2---2----2---2---0--0---------------2---2---2--2--0------------------|
g-3---3----3---3---1--1---7-9-7-------3---3---3--3--1---------3b4-2-3--|
d-4---4----4---4---2--2---------9p7~--4---4---4--4--2-----------------4|
a-4---4----4---4---2--2---------------4---4---4--4--2------------------|
e-2---2----2---2---0--0---------------2---2---2--2--0------------------|
I gonna take you   Home		        I won't do you no Harm

  F#		     E		       F#
e-2---2---x-x-x-2-2--0---0------------|2-------|
b-2---2---x-x-x-2-2--0---0------------|2-------|
g-3---3---x-x-x-3-3--1---1------------|3-------|
d-4---4---x-x-x-4-4--2---2-----0-2-0--|4-------| Than the verse
a-4---4---x-x-x-4-4--2---2-0h2-------2|4-------|
e-2---2---x-x-x-2-2--0---0------------|2-------|
You got to be all Mine		        Foxy lady!
Добавлено: 02.03.2012
Другие материалы по этой песне:

Страница создана 27.02.2012
http://primanota.ru/jimi-hendrix/foxy-lady-chords.htm
Привет, Гость.
Предлагаем пройти революционный курс по гитаре.
Подарок от PrimaNota.Ru, забирай!