PrimaNota.ru - самый крупный в мире бесплатный архив песенных текстов, аккордов, табулатур и нот


Jimi Hendrix - Angel Little Wing Version - таба, видео

Регистрация Запомнить меня
Войти через:  Facebook Google Twitter Vk Yandex Mail.ru

Jimi Hendrix - Angel Little Wing Version - таба, видео

Печатать
Просмотров: 128
Уроки эстрадного вокала в Санкт-Петербурге
Legend
------

 h  = hammer-on
 p  = pull-off
 b  = bend
 r  = bend release
 /  = slide up/down
 5> = natural harmonic
[5] = artifical harmonic
 ~  = vibrato
 tr = trill

	Song: Angel (Little Wing)
	Artist: Jimi Hendrix
	Album: South Saturn Delta  (1997)

	Effects Used: Light Distortion (Fuzz), lots of reverb!

	This is "Angel" by Jimi Hendrix.  Even though it is titled
	"Little Wing" on the South Saturn Delta LP, it is actualy
	the same chord structure that Jimi used for "Sweet Angel".
	I do not want people to think that this is "Little Wing",
	and that's why I titled this "Angel".  Jimi and Mitch used
	this song as a routine jam before recording sessions, and
	it is a great song for anyone to warm up to, and a fun song
	to jam with. Enjoy!

                    Transcribed by Mojo Gravy (Adam)

Eb|--||-------2--------4------------------------------------------------
Bb|--||-------2--------4--------6-------------------4-------------------
Gb|--||-------3--------5--------6-------------------4--------1h2p1------
Db|--||-------4--------6--------6-------------------4--------------2----
Ab|--||-------4--------6--2/4-4-4--4h6p4--------2-2-2--2h4--------------
Eb|--||-0h2-2-2--2h4-4-4-----------------5-4-2-------------0----------2-

Eb|---2--------------|------------------------------------|-------------
Bb|---2--------------|-4-4-4-6-7-7-7----------------------|-------------
Gb|---3--------------|-4-4-4-6-7-7-7--------4p3p4p3p4p3---|-----4-------
Db|---4------4-------|-4-4-4-6-7-7-7-4-4-4--------------4-|-6-6---6-4-6-
Ab|---4--4h6---0-----|-2-2-2-4-5-5-5-4-4-4----------------|-6-6---------
Eb|-2-2----------4-2-|---------------2-2-2----------------|-4-4---------

Eb|-----------------------7-----7-----7-----7-----7-----7-----7-----7----
Bb|----------------------10b12-10b12-10b12-10b12-10b12-10b12-10b12-10b12-
Gb|------6---------------------------------------------------------------
Db|--8-8---8-6-8-9-9-9-9-------------------------------------------------
Ab|--8-8---------9-9-9-9-------------------------------------------------
Eb|--6-6---------7-7-7-7-------------------------------------------------

Eb-|--------------------------|---------------|-------------------------
Bb-|-9-9-9-9------------------|-2-2-2-2-2p3-2-|---5-5-5-------7-7-7-8-8-
Gb-|-9-9-9-9-----------9h11p9-|-2-2-2-------2-|---5-5-5-------7-7-7-8-8-
Db-|-9-9-9-9------9h11--------|-2-2-2-------2-|---5-5-5-6-6-6-7-7-7-8-8-
Ab-|-7-7-7-7-9h11-------------|-0-0-0-------0-|---3-3-3-6-6-6-5-5-5-6-6-
Eb-|-0-0-0-0------------------|---------------|---------4-4-4-----------

Eb|---------------------------||-
Bb|-9-9-9--------------------*||-
Gb|-9-9-9---------------------||-
Db|-9-9-9---------------------||-
Ab|-7-7-7--9-7---------------*||-
Eb|-0-0-0------7-6-5-3-5-3-0--||-

Questions, comments, or requests: mojo_gravy@yahoo.com


     
Добавлено: 20.10.2013
Другие материалы по этой песне:
  • Аккорды и текст

Страница создана 20.10.2013
http://primanota.ru/jimi-hendrix/angel-little-wing-version-chords.htm
Привет, Гость.
Предлагаем пройти революционный курс по гитаре.
Подарок от PrimaNota.Ru, забирай!