PrimaNota.ru - самый крупный в мире бесплатный архив песенных текстов, аккордов, табулатур и нот


Jethro Tull - Budapest - аккорды и текст, таба, видео

Регистрация Запомнить меня
Войти через:  Facebook Google Twitter Vk Yandex Mail.ru

Jethro Tull - Budapest - аккорды и текст, таба, видео

Печатать
Просмотров: 124
Авторы музыки: Ian Anderson

Budapest
Jethro Tull
E||--5----7----|-----------------5----|--7----8----7----5----|--7-|
B||------------|--5----7----8---------|----------------------|----|
G||------------|----------------------|----------------------|----|
D||------------|----------------------|----------------------|----|
A||------------|----------------------|----------------------|----|
E||------------|----------------------|----------------------|----|
 
E|-7----5---------5----|-----------------|-----------------|--------------|
B|-----------8---------|--8----7---------|-----------------|------------5-|
G|---------------------|------------7----|--7/---9----7----|--9/---7------|
D|---------------------|-----------------|-----------------|--------------|
A|---------------------|-----------------|-----------------|--------------|
E|---------------------|-----------------|-----------------|--------------|

E|---------------------|-----------------|-----------------5-|
B|---------------------|-----------------|--5----7----8------|
G|-7----5----4h---5h---|--4--------------|-------------------|
D|---------------------|-------7----2----|-------------------|
A|---------------------|-----------------|-------------------|
E|---------------------|-----------------|-------------------|

E|-7h---8h---7----5----|--7----|--7h---5---------5----|--------------|
B|---------------------|-------|------------8---------|--8/---7------|
G|---------------------|-------|----------------------|------------7-|
D|---------------------|-------|----------------------|--------------|
A|---------------------|-------|----------------------|--------------|
E|---------------------|-------|----------------------|--------------|

E|---------------------|-----------------|-------------------|
B|---------------------|-----------------|-------------------|
G|-9----7----5h---7h---|--5--------------|-------------------|
D|---------------------|-------9----5----|--5/---7----9h---7-|
A|---------------------|-----------------|-------------------|
E|---------------------|-----------------|-------------------|

E|---------------------|----------------------|-------|---------------------|
B|---------------------|----------------------|-------|--5---------7-----8--|
G|-9-------------------|----------------------|-------|--9---------11----12-|
D|------9h---8h---7----|--5h---7h---5---------|-------|---------------------|
A|---------------------|-----------------9----|--7----|--7----9----9-----10-|
E|---------------------|----------------------|-------|---------------------|

E|-------|-------|----------------------|-------------------|
B|-12----|--5----|----------------------|------------3/---5-|
G|-12----|--4----|--2h---4h---2---------|--2/---4-----------|
D|-------|--5----|-----------------5----|-------------------|
A|-------|-------|----------------------|-------------------|
E|-------|-------|----------------------|-------------------|

E|-5/---7----5----5----|--7/---8----7----5----|-------5-----------|
B|-5/---7--------------|----------------------|--8---------8----7-|
G|---------------------|----------------------|-------------------|
D|---------------------|----------------------|-------------------|
A|---------------------|----------------------|-------------------|
E|---------------------|----------------------|-------------------|

E|----------------------|-------|-----------------|--------------|
B|-8/---10----8----7----|--5----|-----------------|--------------|
G|----------------------|-------|-----------------|--------------|
D|----------------------|-------|--5/---7---------|--------------|
A|----------------------|-------|------------7----|--2/---4------|
E|----------------------|-------|-----------------|------------0-|
Добавлено: 25.10.2013
Другие материалы по этой песне:
  • Аккорды и текст

Страница создана 15.06.2012
http://primanota.ru/jethro-tull/budapest-chords.htm
Привет, Гость.
Предлагаем пройти революционный курс по гитаре.
Подарок от PrimaNota.Ru, забирай!