PrimaNota.ru - самый крупный в мире бесплатный архив песенных текстов, аккордов, табулатур и нот


Jet - Kia Killed In Action - текст песни, таба, видео

Регистрация Запомнить меня
Войти через:  Facebook Google Twitter Vk Yandex Mail.ru

Jet - Kia Killed In Action - текст песни, таба, видео

Печатать
Просмотров: 114
Song: K.I.A
Artist: Jet
Tab By: Taytaytay

This my own tab by the way


Tab Legend
. = Palm Mute
~ = Let Ring Out
d = Delay
b = Bend

Intro x4
E-------------------------------------------------------|
B-------------------------------------------------------|
G-------------------------------------------------------|
D-------------------------------------------------------|
A-77-7-7-7-7-7-710--------------------------------------|
E-------------------------------------------------------|
  .. . . . . . ..

Verse 1
----------------12--------------------------------------|
-10~~~-----10d--12---10~~~---10~~~----------------------|
-9~~~~-----9d--------9~~~~---9~~~~----------------------|
--------------------------------------------------------|
-0~~~~-----------------------0~~~~----------------------|
--------------------------------------------------------|

Pre-Chorus 1 x4
--------------------------------------------------------|
--------------------------------------------------------|
--------------------------------------------------------|
--------------------------------------------------------|
---7-5-7-5----------------------------------------------|
------------7-10-7-5-3-0--------------------------------|

Verse 2 x2
--------------------------------------------------------|
--------------------------------------------------------|
--------------------------------------------------------|
-------------------5------------------------------------|
-7-7-5-7--7-5-7-7-----7-7-5-7-7-5-7-7-------------------|
--------------------------------------3-----------------|

Pre-chorus 2
--------------------------------------------------------|
-9-9-7-7-12-12-7-7-9~~----12---12---12---12-------------|
-9-9-7-7-12-12-7-7-9~~----14b--14b--14b--14b--12--------|
--------------------------------------------------------|
--------------------------------------------------------|
--------------------------------------------------------|

Chorus
--------------------------------------------------------|
--------------------------------------------------------|
--------------------------------------------------------|
-------5-------------5----------------------------------|
-7--5----5--7--5--7-----5--7----------------------------|
--------------------------------------------------------|

--------------------------------------------------------|
--------------------------------------------------------|
-------------7--7---------------------------------------|
-----5-------7--7--7--5-5--2~~~~~~~---------------------|
-7-5---5-7---5--5--7--5-5--2~~~~~~~---------------------|
-------------------5--3-3--0~~~~~~~---------------------|

Verse 3
--------------12~~~-------------------------------------|
-10~~~--10d---12~~~--10~~-------------------------------|
-9~~~~--9d-----------9~~~-------------------------------|
--------------------------------------------------------|
-0~~~~---------------0~~~-------------------------------|
--------------------------------------------------------|

Pre-chorus 1 x3
--------------------------------------------------------|
--------------------------------------------------------|
--------------------------------------------------------|
--------------------------------------------------------|
-7-5-7-5--5-5-------------------------------------------|
--------------7-10-7-5-3-0------------------------------|

--------------------------------------------------------|
--------------------------------------------------------|
--------------------------------------------------------|
--------------------------------------------------------|
-7-5-7-5------------------------------------------------|
----------7-10-7-5-3-0----------------------------------|

Pre-chorus 2
--------------------------------------------------------|
-9-9-7-7-12-12-7-7-9~~----12---12---12---12-------------|
-9-9-7-7-12-12-7-7-9~~----14b--14b--14b--14b--12--------|
--------------------------------------------------------|
--------------------------------------------------------|
--------------------------------------------------------|

Chorus x3
--------------------------------------------------------|
--------------------------------------------------------|
--------------------------------------------------------|
-------5-------------5----------------------------------|
-7--5----5--7--5--7-----5--7----------------------------|
--------------------------------------------------------|

--------------------------------------------------------|
--------------------------------------------------------|
--------------------------------------------------------|
-----5--------------------------------------------------|
-7-5---5-7----------------------------------------------|
--------------------------------------------------------|

Bridge
--------12-1212x6-10~~~---------------------------------|
-8b~~~--12-1212---10~~~---------------------------------|
-7b~~~--------------------------------------------------|
-------------------------7b~~---------------------------|
-------------------------------------7s-----------------|
--------------------------------------------------------|

--------------------------------------------------------|
-9-9--7-7-12-12-7-7-9d--12-12-7-7-9---------------------|
-9-9--7-7-12-12-7-7-9d--12-12-7-7-9---------------------|
--------------------------------------------------------|
--------------------------------------------------------|
--------------------------------------------------------|

--------------------------------------------------------|
-9-9-7-7-12-12-7-7-9--12--12--12--12--------------------|
-9-9-7-7-12-12-7-7-9--14b-14b-14b-14b-12----------------|
--------------------------------------------------------|
--------------------------------------------------------|
--------------------------------------------------------|

Chorus
--------------------------------------------------------|
--------------------------------------------------------|
--------------------------------------------------------|
-----5----------5---------------------------------------|
-7-5---5-7--5-7---7-5-----------------------------------|
-----------------------5-7-5-3-0------------------------|

--------------------------------------------------------|
--------------------------------------------------------|
--------------------------------------------------------|
-----5--------------------------------------------------|
-7-5---5-7---5-7----------------------------------------|
-----------------3bbbbbbbbbb----------------------------|

--------------------------------------------------------|
--------------------------------------------------------|
--------------------------------------------------------|
-----5----------5---------------------------------------|
-7-5---5-7--5-7---7-5-----------------------------------|
-----------------------5-7-5-3-0------------------------|

--------------------------------------------------------|
--------------------------------------------------------|
--------------------------------------------------------|
-----5------------5-7-5-2~~~~~~~------------------------|
-7-5---5-7--5-7---5-7-5-2~~~~~~~------------------------|
------------------3-5-3-0~~~~~~~------------------------|

PLEASE RATE!!!!!
Добавлено: 06.12.2013
Другие материалы по этой песне:

Страница создана 15.09.2013
http://primanota.ru/jet/kia-killed-in-action-chords.htm
Привет, Гость.
Предлагаем пройти революционный курс по гитаре.
Подарок от PrimaNota.Ru, забирай!