PrimaNota.ru - самый крупный в мире бесплатный архив песенных текстов, аккордов, табулатур и нот


Jet - Hey Kids - аккорды и текст, таба, видео

Регистрация Запомнить меня
Войти через:  Facebook Google Twitter Vk Yandex Mail.ru

Jet - Hey Kids - аккорды и текст, таба, видео

Печатать
Просмотров: 181
Авторы: Nic Cester, Chris Cester, Cameron Muncey

Hey Kids
Jet
JET_Hey Kids_(from the original Be my girl single)

Intro is basically 'A' bar chord picking:

(---------------------------)
(---------------------------)
(-----2---------------------)
(---2---2---2---------------)
(-0-------0---0---3p0-------)
(---------------------3-----)


Then: A  G  D  A

Then Verse:
A		G
Hey kids, you did it all yourselves.
D					      A
You'll never change the world, so what you think about that?
A             G
Hey dad, the suit is on your back,
                D                                     A
 so take your boots off my neck,and get back to your money stack


Pre-chorus:
AA DD GDG AA

Chorus:
A   A     C	C   D            D    A    A
Hey kids, fake it, I saw you wearing flares,
A      A  C    C     D            D          A
Turned to that shit, you used to have long hair

Verse:
A		G
Hey old man, remember Vietnam?
D                          A
You hated Vietnam, but you dig Afghanistan

A              G
Hey kids, you did it all yourselves.
     D                                   A
You can't turn around now, no-no now go play with someone else


Pre-Chorus Here


Chorus:
A    A	   C    C   D             D      A    A
Hey kids, fake it, we'll all see you in hell,
         A            C            D          A
Woo hoo hoo hoo hoo, hoo hoo hoo, hoo hoo hoo hoo x4


Solo Part:
(an easier way to play this is just to do the opening A picking part the whole time)
------------------------------------------------|
------------------------------------------------|
-----2-----2-----5p2----------2----------5p2----|
---2---2-----2-------5------2---2----2--------5-|
-0-------0---------------0--------0-------------|
------------------------------------------------|

-----------------------------------------------|
-----------------------------------------------|
---2-2--0--2-2-----5p2-------------------------|
---2-2--0--2-2---------5-----------------------|
-0-------------(0)-----------------------------|
-----------------------------------------------|


-----------------------------8-----------------|
-10--10--8--10--10-10--8h10--------------------|
-----------------------------------------------|
-----------------------------------------------|
-----------------------------------------------|
-----------------------------------------------|


-----------------------------------------------------|
-----------------------------------------------------|
-2--2--2--2-2-------------------------2--------------|
-2--2--2--2-2-------xwhatever---------2-let-ring-----|
-0--0--0--0-0-------------------------0--------------|
---------------3-------------------------------------|

Chorus:
         A      	C	    D	         A
Woo hoo hoo hoo hoo, hoo hoo hoo, hoo hoo hoo hoo x4


End - A D D

(hahaha ADD, I know a kid who has that) This song is so cool. Easily my favorite JET 
It is unreleased to the US so you've never heard it.
http://www.jetmusic.co.uk/audiovid.php ----has a demo of this song. Email me and i can 
you up with the full version. See my "you were right" chordlature to get my email.

Peace---Zak Lo
Добавлено: 15.01.2014
Другие материалы по этой песне:

Страница создана 28.03.2012
http://primanota.ru/jet/hey-kids-chords.htm
Привет, Гость.
Предлагаем пройти революционный курс по гитаре.
Подарок от PrimaNota.Ru, забирай!