PrimaNota.ru - самый крупный в мире бесплатный архив песенных текстов, аккордов, табулатур и нот


Jet - Aint That A Lotta Love - текст песни, таба, видео

Регистрация Запомнить меня
Войти через:  Facebook Google Twitter Vk Yandex Mail.ru

Jet - Aint That A Lotta Love - текст песни, таба, видео

Печатать
Просмотров: 100
-------------------------------------------------------------------------------
			     Ain't That A Lotta Love - JET
-------------------------------------------------------------------------------
Tabbed by:JET21
Email:mikemrules9@msn.com

Tuning:standard

The solo might be wrong but it sounds pretty similar.

Intro:
e|---------------------------------------------------------------------------|
B|-------------------------------------7-7--7-7--9-------7-7--7-7--9---------|
G|-------------------------------------7-7--7-7--9-------7-7--7-7--9---------|
D|-2-2-2-2-2------2-2-2-2-2--------------------------------------------------|
A|---------------------------------------------------------------------------|
E|-----------0--------------0------------------------------------------------|

Verse: you got the ticket babe...
e|---------------------------------------------------------------------------|
B|-9---7--7---12--7--7--7----------------------------------------------------|
G|-9---7--7---9---7--7--7----------------------------------------------------|
D|---------------------------------------------------------------------------|
A|---------------------------------------------------------------------------|
E|---------------------------------------------------------------------------|

aint that a lotta love...
e|----------------------------------------12-----------------------------------|
B|--2-5------------------------------------------------------------------------|
G|--2-5------------------9-9----9-11-9-11b--11r-9------------------------------|
D|------------------9h11-----11------------------------------------------------|
A|-----------------------------------------------------------------------------|
E|-----------------------------------------------------------------------------|

now if the...
e|---------------------------------------------------------------------------|
B|-7-7-7-10-9-7-7-7----------------------------------------------------------|
G|-7-7-7-9--9-7-7-7----------------------------------------------------------|
D|---------------------------------------------------------------------------|
A|---------------------------------------------------------------------------|
E|---------------------------------------------------------------------------|
aint that...
e|------------------12---------------------------------------------------------|
B|-2-5--------12----------12---------------------------------------------------|
G|-2-5-----11b---11b---11b---11rp9----9----------------------------------------|
D|---------------------------------11------------------------------------------|
A|-----------------------------------------------------------------------------|
E|-----------------------------------------------------------------------------|
got a smile, kiss, heart, lotta love
e|---------------------------------------------------------------------------|
B|-9-9-9-9-9-9-10-12---------------------------------------------------------|
G|-9-9-9-9-9-9-9--9----------------------------------------------------------|
D|---------------------------------------------------------------------------|
A|---------------------------------------------------------------------------|
E|---------------------------------------------------------------------------|
aint that alotta...
e|-----------------------------------------------------------------------------|
B|-2-5---------12---12---12----------------------------------------------------|
G|-2-5-----11b---11b--11b---11rp9---9------------------------------------------|
D|--------------------------------11-------------------------------------------|
A|-----------------------------------------------------------------------------|
E|-----------------------------------------------------------------------------|
now if the bees...
e|---------------------------------------------------------------------------|
B|---------------------------------------------------------------------------|
G|---------------------------------------------------------------------------|
D|-2-2-2-2-2----2-2-2-2-2----------------------------------------------------|
A|---------------------------------------------------------------------------|
E|----------0------------0---------------------------------------------------|
ain't that alotta
e|--------------12-------------------------------------------------------------|
B|-2-5-----12--------12--------------------------------------------------------|
G|-2-5--11b--11b--11b---11rp9----9---------------------------------------------|
D|----------------------------11-----------------------------------------------|
A|-----------------------------------------------------------------------------|
E|-----------------------------------------------------------------------------|
aint't that alotta
e|---------12-12-----12-----12-12----------------------------------------------|
B|-2-5-----------15b---15b--------15br1/2--------------------------------------|
G|-2-5-------------------------------------------------------------------------|
D|-----------------------------------------------------------------------------|
A|-----------------------------------------------------------------------------|
E|-----------------------------------------------------------------------------|
we gotta...
e|---------------------------------------------------------------------------|
B|-7-7-7-7-9---7-7-7-7-9---7-7-7-7-10-9-9---7-7-7-7-10-9-9-------------------|
G|-7-7-7-7-9---7-7-7-7-9---7-7-7-7-9--9-9---7-7-7-7-9--9-9-------------------|
D|---------------------------------------------------------------------------|
A|---------------------------------------------------------------------------|
E|---------------------------------------------------------------------------|
solo
e|-----------------------------------------------------------------------------|
B|--------------------------------10b-8-10-8-----------------------------------|
G|--7-9---7-9---7-9---7-9---7-9-7------------9-7-7h9-7-----------9-------------|
D|9-----9-----9-----9-----9--------------------7-7---7-9-7-9-7-----------------|
A|------------------------------------------------------------10---------------|
E|-----------------------------------------------------------------------------|

e|---------------------------------------------12--12-10-12-12-10-12-12-10-12-10-12-10-12--|
B|-----------------------------10b-8------10-12--------------------------------------------|
G|--7---7-9---7-9---7-9---7-9--------9--12-------------------------------------------------|
D|9----9----9-----9------9-----------------------------------------------------------------|
A|-----------------------------------------------------------------------------------------|
E|-----------------------------------------------------------------------------------------|

e|--10b-b-b-rp8-----10---------------------------------------------------------|
B|---------------10b--10r-8b1/2--------8-10--10br----8-10--8b------------------|
G|-------------------------------9-7-9-------10brp8--8-10--8b------------------|
D|-------------------------------------------------10--------------------------|
A|-----------------------------------------------------------------------------|
E|-----------------------------------------------------------------------------|

you know the...
e|---------------------------------------------------------------------------|
B|-10-9-7----10-9-7----------------------------------------------------------|
G|-9--9-7----9--9-7----------------------------------------------------------|
D|---------------------------------------------------------------------------|
A|---------------------------------------------------------------------------|
E|---------------------------------------------------------------------------|
aint that alotta...
e|-----------------------------------------------------------------------------|
B|-2-5-------------------------------------------------------------------------|
G|-2-5--------9-9----9-11--11brp9----9-----------------------------------------|
D|-------9h11-----11--------------11-------------------------------------------|
A|-----------------------------------------------------------------------------|
E|-----------------------------------------------------------------------------|
aint that alotta...
e|-----------------------------------------------------------------------------|
B|-2-5-----12----12----12------------------------------------------------------|
G|-2-5--11b---11b---11b---11brp9----9------------------------------------------|
D|-------------------------------11--------------------------------------------|
A|-----------------------------------------------------------------------------|
E|-----------------------------------------------------------------------------|
aint that alotta
e|--------------12-------------------------------------------------------------|
B|-2-5----12----------12-12br--------------------------------------------------|
G|-2-5-11b---11b---11b--------9------------------------------------------------|
D|-----------------------------------------------------------------------------|
A|-----------------------------------------------------------------------------|
E|-----------------------------------------------------------------------------|
aint that alotta...end
e|---------------------------------------------------------------------------|
B|-2-5-----------------------------------------------------------------------|
G|-2-5-----------------------------------------------------------------------|
D|---------------------------------------------------------------------------|
A|---------------------------------------------------------------------------|
E|---------------------------------------------------------------------------|


| /  slide up
| \  slide down
| h  hammer-on
| p  pull-off
| ~  vibrato
| +  harmonic
| x  Mute note
===============================================================================
Добавлено: 01.12.2013
Другие материалы по этой песне:
  • Аккорды и текст

Страница создана 14.10.2013
http://primanota.ru/jet/aint-that-a-lotta-love-chords.htm
Привет, Гость.
Предлагаем пройти революционный курс по гитаре.
Подарок от PrimaNota.Ru, забирай!