PrimaNota.ru - самый крупный в мире бесплатный архив песенных текстов, аккордов, табулатур и нот


Jet - Holiday - аккорды и текст, таба, бас-таба, видео

Регистрация Запомнить меня
Войти через:  Facebook Google Twitter Vk Yandex Mail.ru

Jet - Holiday - аккорды и текст, таба, бас-таба, видео

Печатать
Просмотров: 183
Уроки эстрадного вокала в Санкт-Петербурге
Holiday
Jet
Artist- Jet
Song- Holiday
Album- Shine On

Tabbed by: Rubbersoul (Izpizdiconas@hotmail.com)
	   -->www.csoasis.com/phpBB/


B5	x244xx
A5	x022xx
D5	x577xx
C5	x355xx
E5	x799xx
F5	x  8 10 10 x x x
G5	x 10 12 12 x x xs




riff intro                     riff 1

e-----------------             e------10----------10--12/10-
B-----------------             B---------------12-----------
G-7/4-4---2-2--4--             G-9p11----11-9---------------
D-7/4-4---2-2--4--             D----------------------------
A-5/2-2---0-0--2--             A----------------------------
E-------2---------             E----------------------------





riff 2				riff chorus

e----------------		e-------------------------------------------
B----------------		B-------------------------------------------
G-9-9--7-4-2-2-4-		G-7-7--7-5-7--10-10--12p-12--10-7--10--7-7--
D-9-9--7-4-2-2-4-		D-7-7--7-5-7--10-10--12p-12--10-7--10--7-7--
A-7-7--5-2-0-0-2-		A-5-5--5-3-5--8--8---10p-10--8--5--8---5-5--
E----------------		E-------------------------------------------




Intro


(riff intro)


Verse 1

B
Got this notion from another man
Put this dead fish in my hand
Paperweight baby it's my name
                                            D5 E5  (riff 1)
I hold you down coz your all the same to me
That's right



(riff 2)


verse 2

B
Say whatever you want baby, I'm your man
And I can help you yes I can
Paperweight baby it's my name
                                            D5 E5  (riff 1)
I can't relate coz your all the same to me
That's right


(riff 2)


Chorus

(riff chorus)
Makes no difference what they say
We're goin' on holiday

(riff chorus)
Makes no difference what they say
We're goin' on holiday

That's right


(riff 2)


verse 3

B
Been up all night and I sleep all day
Why oh why do I live this way
Hey pretty girl sit next to me
                                            D5 E5  (riff 1)
Coz I'm a ten foot diamond Christmas tree     can't you seeee



riff 2


Chorus

(riff chorus)
Makes no difference what they say
We're goin' on holiday


(riff chorus)
Makes no difference what they say
We're goin' on holiday

(riff chorus)
Hold my calls just get me on the front page
We're goin' on holiday

(riff chorus)
Makes no difference what they say
We're never going see me again




Solo

e---------------------------------------------------17-19------------------17-19--
B----------------------------10-12------15-17-15-19------------15-17-15-19--------
G-------------------7-9-7-11---------16---------------------16--------------------
D-----------7-9---9---------------------------------------------------------------
A---5-7-5-9-----------------------------------------------------------------------
E-7-------------------------------------------------------------------------------


e-19-19-17----24h--19--19-19-17-17--------------------------------
B----------19----------------------19-19-17-17--------------------
G----------------------------------------------19-19-16-16----16--
D----------------------------------------------------------19-----
A-----------------------------------------------------------------
E-----------------------------------------------------------------



Chorus

(riff chorus)
Makes no difference what they say
We're goin' on holiday


(riff chorus)
Makes no difference what they say
We're goin' on holiday

(riff chorus)
Hold my calls just get me on the front page
We're goin' on holiday

(riff chorus)
Makes no difference what they say
We're never going see me again



B          D




Any comments or suggestions : Izpizdiconas@hotmail.com
Добавлено: 22.06.2013
Другие материалы по этой песне:

Страница создана 03.06.2012
http://primanota.ru/jet/holiday-chords.htm
Привет, Гость.
Предлагаем пройти революционный курс по гитаре.
Подарок от PrimaNota.Ru, забирай!